Lagunas Metales

Molotov

A5
12
X022XX
B5
134
X244XX
C#5
134
X466XX
C5
134
X355XX
F#5
134
244XXX
Tom: G
#1t1#Intro:
#1t2#E|-----------------:
B|-----------------:
G|------44444242---:
D|------444442424--:
A|------222220204--:
E|--------------2--:#/1t2##/1t1#

Verso:
Me lleva la Bersuit Vergarbat
Yo no viví la Maldita Vencidad
Amigos invisibles, yo nunca los vi
Los héroes del silencio, jamas los oí
Andaba de parranda
Cuando tocaba Panda
Y fue el otro yo
El que fue a ver a la banda
Cuando tocaba ha mano
Dijo chao y me fui
Y el Cafe tacvba no me deja dormir
No deja dormir, no deja dormir
Yo no comer animales de mar
Y no conocer a Andres Calamaro
Cuando tocaba el tri yo escucha cri-cri
Me hacia pipí y no me dejaban ir
No creo en la soltería y nunca haría brujería
Y no pudimos ir a lo de Charly García
Porque los pericos no nos dejan dormir
No nos dejan dormir, y al cabo que ni quería

Precoro:
C#5                                 C5
Hablo con nadie en medio de la calle
A5
Mentando madres, mentando madres
B5
Ando en el viaje esperando que baje
B5
Son las lagunas metales x2

Coro:
   F#5
Olvide quien soy
      A5                B5
En el reventón y aquí estoy
       F#5                A5
No se que día es hoy o si vengo o voy
   B5
Es el rol

Verso:
Soy pacifista y no fui a ver a La Guerra
También me perdí de el de la Gusana Ciega
No me atrevo a ir al concierto de Gloria
Me dio medio miedo los conciertos de Fobia
Yo nunca fui a visitar a Los caifanes
No me gustan el Asutilar, ni tampoco los Jaguares
Y me duelen las pelotas, pero que me rebotan
Fui a ver Animal ¡y lo permite la mascota!
Soy inocente no quiero de Police
Tampoco interpol, ni al FBI

Precoro:
C#5                                 B5
Hablo con nadie en medio de la calle
A5
Mentando madres, mentando madres
B5
Ando en el viaje esperando que baje
B5
Son las lagunas metales

Coro:
   F#5
Olvide quien soy
      A5                B5
En el reventón y aquí estoy
       F#5                A5
No se que día es hoy o si vengo o voy
   B5
Es error

Precoro:
C#5                                 B5
Hablo con nadie en medio de la calle
A5
Mentando madres, mentando madres
B5
Ando en el viaje esperando que baje
B5
Son las lagunas metales

#2t1#Verso:
#2t2#E|-------------------------|
B|-------------------------|
G|-----------5--7-7-9------|
D|-----5---7---------------|  x4
A|---5---5------------7-7--|
E|-------------------------|#/2t2##/2t1#
Que andaba medio enfermo cuando tocaba Termo
Les juro no fui yo, que era el mostró de Palermo
No ve a las tres de Chile, ni rostro de mantenga
Y me fui a astronauta, me fui a ver a Los Planetas
Ni el Mago de Oz, pensé que eran puro cuento
Iba a ver a los Cooleos pero que ya estaban muertos
Al concierto de Pedrito Fernandez, me crees que yo no fui
No, no, no, no, yo no fui

#3t1#Solo:
#3t2#E|-----------------------------------------------------|
B|-----------------------------------------------------|
G|------------------------14-14-x-x-14-x-11-x2---------| x2
D|--10-10-x-x-10-x-12-x2-------------------------------|
A|-----------------------------------------------------|
E|-----------------------------------------------------|#/3t2##/3t1#

Coro:
   F#5
Olvide quien soy
      A5                B5
En el reventón y aquí estoy
       F#5                A5
No se que día es hoy o si vengo o voy
   B5
Es el rol

Salida:

#4t1##4t2#E|----------------------------------------------------------:
B|----------------------------------------------------------:
G|-----------------------------------------------44444242---:
D|-----------------------------------------------444442424~-:
A|-----------------------------------------------222220204~-:
E|--0--050----020----050----020----050----020------------2~-:#/4t2##/4t1#
Composição: Colaboração e revisão: Johan Beltrán