Be With You

Mr. Big

A
123
X02220
Asus2
12
X02200
B
234
X24442
C#m
234
X46654
Cadd9
34
X35533
D
123
XX0232
E
123
022100
E/F#
1234
XX4454
E/G#
1234
4X245X
Em
12
022000
G
123
320003
G/A
1234
5X543X
G/B
123
X20033
Tom: G
C#m             E      A                  E
Hold on little girl.  Show me what he's done to you.
C#m             E         A                 E
Stand up little girl.  A broken heart can't be that bad.
             A            E         A                  E
When it's through, it's through.  Fate will twist the both of you.
     D                           B
So come on baby, come on over.  Let me be the one to show you.


E   E/F# E/G#    E  Asus2    B        E
I'm the  one    who wants to be with you.
E      E/F# E/G#    E   Asus2        B       E
Deep   inside       I   hope you'll feel it too.
E   E/F# E/G#    E   Asus2    B          C#m
Waited    on     a   line of greens and blues
E     E/F#  E/G#    E   Asus2      B         E
just  to    be     the  next to    be with  you.


C#m             E         A               E
Build up your confidence so you can be on top for once.
C#m             E         A                 E
Wake up! Who cares about little boys that talk too much?
    A            E            A                E
I seen it all go down.  Your game of love was all rained out.
    D                            B
So come on baby, come on over.  Let me be the one to hold you.


E   E/F# E/G#    E  Asus2    B        E
I'm the  one    who wants to be with you.
E      E/F# E/G#    E   Asus2        B       E
Deep   inside       I   hope you'll feel it too.
E   E/F# E/G#    E   Asus2    B          C#m
Waited    on     a   line of greens and blues
E     E/F#  E/G#    E   Asus2      B         E
just  to    be     the  next to    be with  you.


A                        C#m
Why be alone     when we can be together baby?
G                                 G                        INICIO SOLO
You can make my life worthwhile.  I can make you start to  smile.


BASE SOLO = BASE DO REFRÃO

#1t1#    sl.        h  p  h
#1t2#-----------------------|----------------------------|
----------5------------|----------------------------|
-1--2/-4-----6----4----|-4----4---------------------|
-2--4/-6-----7----7----|-4----4--6--4--6------------|
-----------------------|----------------------------|
-----------------------|----------------------------|#/1t2##/1t1#

#2t1#    sl.    ~~~   h  p p     let ring
#2t2#------------------4----|-2--4-2-0----0--0-----------|
----------5---~~~-5----|----------0--0--0-----------|
-1--2/-4-----6---------|----------------------------|
-2--4/-6-----7---------|----------------------------|
-----------------------|----------------------------|
-----------------------|---------------------0------|#/2t2##/2t1#

#3t1#    sl.
#3t2#-----------------------|----------------------------|
----------5------------|--7----9--9----------12-10--|
-1--2/-4-----6----4----|--8----9--9---------9--9----|
-2--4/-6-----7----7----|--9----11-11----9-11--------|
-----------------------|-------------/11------------|
-----------------------|----------------------------|#/3t2##/3t1#

#4t1#     ~~   h  p p       n.h.   sl
#4t2#--~~~---------------4--|-2--4-2-0--0---12-----------|
-9---10--12---------5--|---------0-----12-----------|
------------/9---~~----|---------------------11/13--|
---------------11\-----|----------------------------|
-----------------------|----------------------------|
-----------------------|----------------------------|#/4t2##/4t1#


             A            E         A                  E
When it's through, it's through.  Fate will twist the both of you.
     D                           B
So come on baby, come on over.  Let me be the one to show you.

[MUDANÇA DE TOM]

G  G/A  G/B     G  Cadd9    D        G
Im the  one    who wants to be with you.
G   G/A  G/B  G   Cadd9        D      G
Deep inside   I   hope you'll feel it too.
G   G/A  G/B  G   Cadd9    D        Em
Waited   on   a   line of greens and blues
G  G/A  G/B   G   Cadd9      D          G
just to  be  the  next to    be with   you.


[vOLTA PARA TOM MI]
E   E/F# E/G#    E  Asus2    B        E
I'm the  one    who wants to be with you.
E      E/F# E/G#    E   Asus2        B       E
Deep   inside       I   hope you'll feel it too.
E   E/F# E/G#    E   Asus2    B          C#m
Waited    on     a   line of greens and blues
E     E/F#  E/G#    E   Asus2      B         E
just  to    be     the  next to    be with  you.

E     E/F#  E/G#    E   Asus2      B         E
just  to    be     the  next to    be with  you.


#5t1# E  E/F# E/G# E   Asus2      B E
#5t2#0---0----0---0----0-------|-------------0------|
0---0----0---0----0-------|-4-----------0------|
1---1----1---1----2-------|-4-----------1------|
2---2----2---2----2-------|-4-----------2------|
2---2----2---2----0-------|-2-----------2------|
0---2----4---0------------|-------------0------|#/5t2##/5t1#

#6t1# G  G/A  G/B  G   Cadd9      D G
#6t2#3---3----3---3----3-------|-2-----------3------|
3---3----3---3----3-------|-3-----------3------|
0---0----0---0----0-------|-2-----------0------|
0---0----0---0----2-------|-0-----------0------|
2---0----2---2----3-------|-0-----------2------|
3------------3------------|-------------3------|#/6t2##/6t1#
Composição: David Grahame / Eric MartinColaboração e revisão: Larissa CarvalhoMarco Alberto