busca

1 And 3

Mxpx

Tom: A#
Tabbed by: Bair
Email: *
Tuning: Standard

Intro/ Verse:
e|---------------------------------------------------------------|
B|---------------------------------------------------------------|
G|---------------------------------------------------------------|
D|--10-12-10-8-7-10-8-7-10---------------------------------------|
A|---------------------------------------------------------------|
E|---------------------------------------------------------------|

Pre- Chorus:
e|---------------------------------------------------------------|
B|---------------------------------------------------------------|
G|--33333333---------------------------888888888888--------------|
D|--33333333--55555555--33333333--(X2)-888888888888--------------|
A|--11111111--55555555--33333333-------666666666666--------------|
E|------------33333333--11111111---------------------------------|

Chorus:
e|------------------------------------------------------------------|
B|------------------------------------------------------------------|
G|--------8888--------5555--------------8888--------5555--88888888--|
D|--5555--8888--8888--5555--(X2)--5555--8888--8888--5555--88888888--|
A|--5555--6666--8888--3333--------5555--6666--8888--3333--66666666--|
E|--3333--------6666--------------3333--------6666------------------|

Bridge:
e|---------------------------------------------------------------|
B|---------------------------------------------------------------|
G|---------------------------------------------------------------|
D|--55--5555--5555--55555555--(X8)-------------------------------|
A|--55--5555--5555--55555555-------------------------------------|
E|--33--3333--3333--33335555-------------------------------------|

Clipes