1 And 3

Mxpx

Tom: G
Tabbed by: Bair
Email: *
Tuning: Standard

#1t1#Intro/ Verse:
#1t2#e|---------------------------------------------------------------|
B|---------------------------------------------------------------|
G|---------------------------------------------------------------|
D|--10-12-10-8-7-10-8-7-10---------------------------------------|
A|---------------------------------------------------------------|
E|---------------------------------------------------------------|#/1t2##/1t1#

#2t1#Pre- Chorus:
#2t2#e|---------------------------------------------------------------|
B|---------------------------------------------------------------|
G|--33333333---------------------------888888888888--------------|
D|--33333333--55555555--33333333--(X2)-888888888888--------------|
A|--11111111--55555555--33333333-------666666666666--------------|
E|------------33333333--11111111---------------------------------|#/2t2##/2t1#

#3t1#Chorus:
#3t2#e|------------------------------------------------------------------|
B|------------------------------------------------------------------|
G|--------8888--------5555--------------8888--------5555--88888888--|
D|--5555--8888--8888--5555--(X2)--5555--8888--8888--5555--88888888--|
A|--5555--6666--8888--3333--------5555--6666--8888--3333--66666666--|
E|--3333--------6666--------------3333--------6666------------------|#/3t2##/3t1#

#4t1#Bridge:
#4t2#e|---------------------------------------------------------------|
B|---------------------------------------------------------------|
G|---------------------------------------------------------------|
D|--55--5555--5555--55555555--(X8)-------------------------------|
A|--55--5555--5555--55555555-------------------------------------|
E|--33--3333--3333--33335555-------------------------------------|#/4t2##/4t1#
Composição: Colaboração e revisão: