Aces Up

Mxpx

A
123
X02220
A/E
123
0X2220
A9
12
X02200
B5
134
X244XX
C#m
234
X46654
E
123
022100
F#m
34
244222
Tom: G
INTRO:
Fill 1
#1t1#     E    B5    A/E   E    B5
#1t2#E|--------------------------------|
B|--------------------------------|
G|--1---1-4---4-2----1-----4-4-4-4|
D|--2---2-4---4-2----2-----4-4-4-4|
A|--2---2-2---2-0----2-----2-2-2-2|
E|--0---0-x---x-0----0-----x-x-x-x|Repeat X1#/1t2##/1t1#


Verse 1:
Verse 2:

    E                             B5
 you push yourself away from everyone you know
 The youngest, brightest minds can't figure out the cause
#2t1##2t2#E|------------------------------------------------------|
B|------------------------------------------------------|
G|--1---1-1---1-1-1--1---1-1---1-1-4---4---4-4----4-4-4-|
D|--2---2-2---2-2-2--2---2-2---2-2-4---4---4-4----4-4-4-|
A|--2---2-2---2-2-2--2---2-2---2-2-2---2---2-2----2-2-2-|
E|--0---0-0---0-0-0--0---0-0---0-0-x---x---x-x----x-x-x-|#/2t2##/2t1#

    F#m                            A5/E
    How do you expect relationships to grow?
  Of our incurable unhappiness and all our flaws
#3t1##3t2#E|------------------------------------------------------|
B|------------------------------------------------------|
G|--2---2-2---2-2-2--2---2-2---2-2-2---2---2-2----2-2-2-|
D|--4---4-4---4-4-4--4---4-4---4-4-2---2---2-2----2-2-2-|
A|--4---4-4---4-4-4--4---4-4---4-4-0---0---0-0----0-0-0-|
E|--2---2-2---2-2-2--2---2-2---2-2-0---0---0-0----0-0-0-|#/3t2##/3t1#

    E                              B5
       You feel like a character inside a book
Our mass has reached passed critical to obvious
#4t1##4t2#E|------------------------------------------------------|
B|------------------------------------------------------|
G|--1---1-1---1-1-1--1---1-1---1-1-4---4---4-4----4-4-4-|
D|--2---2-2---2-2-2--2---2-2---2-2-4---4---4-4----4-4-4-|
A|--2---2-2---2-2-2--2---2-2---2-2-2---2---2-2----2-2-2-|
E|--0---0-0---0-0-0--0---0-0---0-0-x---x---x-x----x-x-x-|#/4t2##/4t1#

    F#m                            A5/E          B5
    That ends in a disaster   No happy ever after
    I beg you, I beseech you  But I can't seem to reach you
#5t1##5t2#E|------------------------------------------------------|
B|------------------------------------------------------|
G|--2---2-2---2-2-2--2---2-2---2-2-2---2---2-2----4-4-4-|
D|--4---4-4---4-4-4--4---4-4---4-4-2---2---2-2----4-4-4-|
A|--4---4-4---4-4-4--4---4-4---4-4-0---0---0-0----2-2-2-|
E|--2---2-2---2-2-2--2---2-2---2-2-0---0---0-0----x-x-x-|#/5t2##/5t1#

    E                        A     E
     No...No...
#6t1##6t2#E|-------------------------|-----------|
B|-------------------------|-----------|
G|--1---1-1-1-1-1x--1--X-X-|-2-2-X-1---|
D|--2---2-2-2-2-2x--2--X-X-|-2-2-X-2---|
A|--2---2-2-2-2-2x--2--X-X-|-0-0-X-2---|
E|--0---0-0-0-0-0x--0--X-X-|-0-0-X-0---|#/6t2##/6t1#

    E                          A     E
       Just deal the cards
#7t1##7t2#E|---------------------------|-----------|
B|---------------------------|-----------|
G|--(1)---1-1-1-1-1x--1--X-X-|-2-2-X-1---|
D|--(2)---2-2-2-2-2x--2--X-X-|-2-2-X-2---|
A|--(2)---2-2-2-2-2x--2--X-X-|-0-0-X-2---|
E|--(0)---0-0-0-0-0x--0--X-X-|-0-0-X-0---|#/7t2##/7t1#

   E                           A     E
 hope that you  get aces
#8t1##8t2#E|---------------------------|-----------|
B|---------------------------|-----------|
G|--(1)---1-1-1-1-1x--1--X-X-|-2-2-X-1---|
D|--(2)---2-2-2-2-2x--2--X-X-|-2-2-X-2---|
A|--(2)---2-2-2-2-2x--2--X-X-|-0-0-X-2---|
E|--(0)---0-0-0-0-0x--0--X-X-|-0-0-X-0---|#/8t2##/8t1#

   E                           A     E
And when you play your hand
#9t1##9t2#E|---------------------------|-----------|
B|---------------------------|-----------|
G|--(1)---1-1-1-1-1x--1--X-X-|-2-2-X-1---|
D|--(2)---2-2-2-2-2x--2--X-X-|-2-2-X-2---|
A|--(2)---2-2-2-2-2x--2--X-X-|-0-0-X-2---|
E|--(0)---0-0-0-0-0x--0--X-X-|-0-0-X-0---|#/9t2##/9t1#

    E                        A
put on your poker faces
#10t1##10t2#E|---------------------------|-------|
B|---------------------------|-------|
G|--(1)---1-1-1-1-1x--1--X-X-|-2-2-X-|
D|--(2)---2-2-2-2-2x--2--X-X-|-2-2-X-|
A|--(2)---2-2-2-2-2x--2--X-X-|-0-0-X-|
E|--(0)---0-0-0-0-0x--0--X-X-|-0-0-X-|#/10t2##/10t1#

Refrain/Chorus:

    C#m                        B5
    Cause life just don't deal aces            You may
#11t1##11t2#E|----------------------------------------------------|
B|--5---5-5---5-5-5--5---5-5--------------------------|
G|--6---6-6---6-6-6--6---6-6---4---4---4-4-4-4--4---4-|
D|--6---6-6---6-6-6--6---6-6---4---4---4-4-4-4--4---4-|
A|--4---4-4---4-4-4--4---4-4---2---2---2-2-2-2--2---2-|
E|--x---x-x---x-x-x--x---x-x---x---x---x-x-x-x--x---x-|#/11t2##/11t1#

    E            A9
    have    to   bluff sometimes               You may
#12t1##12t2#E|----------------------------------------------------|
B|----------------------------------------------------|
G|--1----1-1-1-1-3----3---3-3-3--2---2-2-2-4--2--2-2-2|
D|--2----2-2-2-2-4----4---4-4-4--2---2-2-2-------2-2-2|
A|--2----2-2-2-2-3----3---3-3-3--0---0-----------0-0-0|
E|--0----0-0-0-0-4----4---4-4-4--0---0-----------0-0-0|#/12t2##/12t1#


    E            A9
    have    to   bluff sometimes
#13t1##13t2#E|----------------------------------------------------|
B|----------------------------------------------------|
G|--1----1-1-1-1-3----3---3-3-3--2---2-2-2-4--2--2-2-2|
D|--2----2-2-2-2-4----4---4-4-4--2---2-2-2-------2-2-2|
A|--2----2-2-2-2-3----3---3-3-3--0---0-----------0-0-0|
E|--0----0-0-0-0-4----4---4-4-4--0---0-----------0-0-0|#/13t2##/13t1#

Interlude:

Fill 1

#14t1#     E    B5    A/E   E    B5
#14t2#E|--------------------------------|
B|--------------------------------|
G|--1---1-4---4-2----1-----4-4-4-4|
D|--2---2-4---4-2----2-----4-4-4-4|
A|--2---2-2---2-0----2-----2-2-2-2|
E|--0---0-x---x-0----0-----x-x-x-x|Repeat X1#/14t2##/14t1#

Back to verse

Bridge:

    Don't...             Give...
    Stand...             And...
#15t1##15t2#E|--------------------------------|
B|--------------------------------|
G|--1---1-1---1-1----1----1-1-1-1-|
D|--2---2-1---1-2----2----2-2-2-2-|
A|--2---2-2---2-2----2----2-2-2-2-|
E|--0---0-0---0-0----0----0-0-0-0-|#/15t2##/15t1#


        Up...            On...
        Fight            As...
#16t1##16t2#E|--------------------------------|
B|--------------------------------|
G|--1---1-1---1-1----1----1-1-1-1-|
D|--2---2-1---1-2----2----2-2-2-2-|
A|--x---x-x---x-x----x----x-x-x-x-|
E|--2---2-2---2-2----2----2-2-2-2-|#/16t2##/16t1#


    Us...
    One...
#17t1##17t2#E|--------------------------------|
B|--------------------------------|
G|--------------------------------|
D|--2---2-1---1-2----2----2-2-2-2-|
A|--0---0-0---0-0----0----0-0-0-0-|
E|--0---0-0---0-0----0----0-0-0-0-|#/17t2##/17t1#


#18t1##18t2#E|--------------------------------|
B|--------------------------------|
G|--------------------------------|
D|--2----2/4--4/6--6\2----2-2-2-2-|
A|--0----0-0--0-0--0-0----0-0-0-0-|
E|--0----0-0--0-0--0-0----0-0-0-0-|#/18t2##/18t1#

back to chorus/Refrain
Fill 1
End on E
Composição: Mike HerreraColaboração e revisão: Tulio Anderson