busca

Aces Up

Mxpx

Tom: E
INTRO:
Fill 1
     E    B5    A/E   E    B5
E|--------------------------------|
B|--------------------------------|
G|--1---1-4---4-2----1-----4-4-4-4|
D|--2---2-4---4-2----2-----4-4-4-4|
A|--2---2-2---2-0----2-----2-2-2-2|
E|--0---0-x---x-0----0-----x-x-x-x|Repeat X1


Verse 1:
Verse 2:

    E                             B5
 you push yourself away from everyone you know
 The youngest, brightest minds can't figure out the cause
E|------------------------------------------------------|
B|------------------------------------------------------|
G|--1---1-1---1-1-1--1---1-1---1-1-4---4---4-4----4-4-4-|
D|--2---2-2---2-2-2--2---2-2---2-2-4---4---4-4----4-4-4-|
A|--2---2-2---2-2-2--2---2-2---2-2-2---2---2-2----2-2-2-|
E|--0---0-0---0-0-0--0---0-0---0-0-x---x---x-x----x-x-x-|

    F#m                            A5/E
    How do you expect relationships to grow?
  Of our incurable unhappiness and all our flaws
E|------------------------------------------------------|
B|------------------------------------------------------|
G|--2---2-2---2-2-2--2---2-2---2-2-2---2---2-2----2-2-2-|
D|--4---4-4---4-4-4--4---4-4---4-4-2---2---2-2----2-2-2-|
A|--4---4-4---4-4-4--4---4-4---4-4-0---0---0-0----0-0-0-|
E|--2---2-2---2-2-2--2---2-2---2-2-0---0---0-0----0-0-0-|

    E                              B5
       You feel like a character inside a book
Our mass has reached passed critical to obvious
E|------------------------------------------------------|
B|------------------------------------------------------|
G|--1---1-1---1-1-1--1---1-1---1-1-4---4---4-4----4-4-4-|
D|--2---2-2---2-2-2--2---2-2---2-2-4---4---4-4----4-4-4-|
A|--2---2-2---2-2-2--2---2-2---2-2-2---2---2-2----2-2-2-|
E|--0---0-0---0-0-0--0---0-0---0-0-x---x---x-x----x-x-x-|

    F#m                            A5/E          B5
    That ends in a disaster   No happy ever after
    I beg you, I beseech you  But I can't seem to reach you
E|------------------------------------------------------|
B|------------------------------------------------------|
G|--2---2-2---2-2-2--2---2-2---2-2-2---2---2-2----4-4-4-|
D|--4---4-4---4-4-4--4---4-4---4-4-2---2---2-2----4-4-4-|
A|--4---4-4---4-4-4--4---4-4---4-4-0---0---0-0----2-2-2-|
E|--2---2-2---2-2-2--2---2-2---2-2-0---0---0-0----x-x-x-|

    E                        A     E
     No...No...
E|-------------------------|-----------|
B|-------------------------|-----------|
G|--1---1-1-1-1-1x--1--X-X-|-2-2-X-1---|
D|--2---2-2-2-2-2x--2--X-X-|-2-2-X-2---|
A|--2---2-2-2-2-2x--2--X-X-|-0-0-X-2---|
E|--0---0-0-0-0-0x--0--X-X-|-0-0-X-0---|

    E                          A     E
       Just deal the cards
E|---------------------------|-----------|
B|---------------------------|-----------|
G|--(1)---1-1-1-1-1x--1--X-X-|-2-2-X-1---|
D|--(2)---2-2-2-2-2x--2--X-X-|-2-2-X-2---|
A|--(2)---2-2-2-2-2x--2--X-X-|-0-0-X-2---|
E|--(0)---0-0-0-0-0x--0--X-X-|-0-0-X-0---|

   E                           A     E
 hope that you  get aces
E|---------------------------|-----------|
B|---------------------------|-----------|
G|--(1)---1-1-1-1-1x--1--X-X-|-2-2-X-1---|
D|--(2)---2-2-2-2-2x--2--X-X-|-2-2-X-2---|
A|--(2)---2-2-2-2-2x--2--X-X-|-0-0-X-2---|
E|--(0)---0-0-0-0-0x--0--X-X-|-0-0-X-0---|

   E                           A     E
And when you play your hand
E|---------------------------|-----------|
B|---------------------------|-----------|
G|--(1)---1-1-1-1-1x--1--X-X-|-2-2-X-1---|
D|--(2)---2-2-2-2-2x--2--X-X-|-2-2-X-2---|
A|--(2)---2-2-2-2-2x--2--X-X-|-0-0-X-2---|
E|--(0)---0-0-0-0-0x--0--X-X-|-0-0-X-0---|

    E                        A
put on your poker faces
E|---------------------------|-------|
B|---------------------------|-------|
G|--(1)---1-1-1-1-1x--1--X-X-|-2-2-X-|
D|--(2)---2-2-2-2-2x--2--X-X-|-2-2-X-|
A|--(2)---2-2-2-2-2x--2--X-X-|-0-0-X-|
E|--(0)---0-0-0-0-0x--0--X-X-|-0-0-X-|

Refrain/Chorus:

    C#m                        B5
    Cause life just don't deal aces            You may
E|----------------------------------------------------|
B|--5---5-5---5-5-5--5---5-5--------------------------|
G|--6---6-6---6-6-6--6---6-6---4---4---4-4-4-4--4---4-|
D|--6---6-6---6-6-6--6---6-6---4---4---4-4-4-4--4---4-|
A|--4---4-4---4-4-4--4---4-4---2---2---2-2-2-2--2---2-|
E|--x---x-x---x-x-x--x---x-x---x---x---x-x-x-x--x---x-|

    E            A9
    have    to   bluff sometimes               You may
E|----------------------------------------------------|
B|----------------------------------------------------|
G|--1----1-1-1-1-3----3---3-3-3--2---2-2-2-4--2--2-2-2|
D|--2----2-2-2-2-4----4---4-4-4--2---2-2-2-------2-2-2|
A|--2----2-2-2-2-3----3---3-3-3--0---0-----------0-0-0|
E|--0----0-0-0-0-4----4---4-4-4--0---0-----------0-0-0|


    E            A9
    have    to   bluff sometimes
E|----------------------------------------------------|
B|----------------------------------------------------|
G|--1----1-1-1-1-3----3---3-3-3--2---2-2-2-4--2--2-2-2|
D|--2----2-2-2-2-4----4---4-4-4--2---2-2-2-------2-2-2|
A|--2----2-2-2-2-3----3---3-3-3--0---0-----------0-0-0|
E|--0----0-0-0-0-4----4---4-4-4--0---0-----------0-0-0|

Interlude:

Fill 1

     E    B5    A/E   E    B5
E|--------------------------------|
B|--------------------------------|
G|--1---1-4---4-2----1-----4-4-4-4|
D|--2---2-4---4-2----2-----4-4-4-4|
A|--2---2-2---2-0----2-----2-2-2-2|
E|--0---0-x---x-0----0-----x-x-x-x|Repeat X1

Back to verse

Bridge:

    Don't...             Give...
    Stand...             And...
E|--------------------------------|
B|--------------------------------|
G|--1---1-1---1-1----1----1-1-1-1-|
D|--2---2-1---1-2----2----2-2-2-2-|
A|--2---2-2---2-2----2----2-2-2-2-|
E|--0---0-0---0-0----0----0-0-0-0-|


        Up...            On...
        Fight            As...
E|--------------------------------|
B|--------------------------------|
G|--1---1-1---1-1----1----1-1-1-1-|
D|--2---2-1---1-2----2----2-2-2-2-|
A|--x---x-x---x-x----x----x-x-x-x-|
E|--2---2-2---2-2----2----2-2-2-2-|


    Us...
    One...
E|--------------------------------|
B|--------------------------------|
G|--------------------------------|
D|--2---2-1---1-2----2----2-2-2-2-|
A|--0---0-0---0-0----0----0-0-0-0-|
E|--0---0-0---0-0----0----0-0-0-0-|


E|--------------------------------|
B|--------------------------------|
G|--------------------------------|
D|--2----2/4--4/6--6\2----2-2-2-2-|
A|--0----0-0--0-0--0-0----0-0-0-0-|
E|--0----0-0--0-0--0-0----0-0-0-0-|

back to chorus/Refrain
Fill 1
End on E

Clipes