busca

Angels

Mxpx

Intro: (0:10)
G|------------------------------------------------------------------|
D|------------------------------------------------------------------| 
A|---------------------------------1111-1-1-111-1-1-111-1-1-111-1---|
E|-1111-1-1-111-1-1-111-1-1-111-1-----------------------------------|


Verso: (0:21)
G|----------------------------------|
D|----------------------------------| 
A|-----------------1111111133333333-| x2
E|-1111111111111111-----------------|


Pre Refrão:
G|----------------------------------|
D|-0000000000000000-----------------| 
A|-----------------1-------3-333333-| x2
E|---------------------1------------|

G|------------------------|
D|------------------------| 
A|-1-------3/151515151515-|
E|-----1------------------|


Refrão: (0:47)
G|----------------------------------|
D|----------------------------------| 
A|-1111111133333333-----------------| x2
E|-----------------1111-1-1-1-111-1-|

G|------------------|
D|----------23532---| 
A|-111111113-----53-| x2
E|------------------|

G|--------------------------------------------------|
D|--------------------------------------------------| 
A|-1111111133333333----------------1111-1-1-1-111-1-|
E|-----------------1111-1-1-1-111-1-----------------|


Verso 2: (1:12)
G|----------------------------------|
D|----------------------------------| 
A|-----------------1111111133333333-| x2
E|-1--------------------------------|


Pre Refrão:
G|----------------------------------|
D|-0000000000000000-----------------| 
A|-----------------1-------3-333333-| x2
E|---------------------1------------|

G|------------------------|
D|------------------------| 
A|-1-------3/151515151515-|
E|-----1------------------|


Refrão 2: (1:38)
G|----------------------------------|
D|----------------------------------| 
A|-1111111133333333-----------------| x2
E|-----------------1111-1-1-1-111-1-|

G|------------------|
D|----------23532---| 
A|-111111113-----53-| x2
E|------------------|

G|--------------------------------------------------|
D|--------------------------------------------------|
A|-1111111133333333----------------1111-1-1-1-111-1-|
E|-----------------1111-1-1-1-111-1-----------------|

G|----------------------------------|
D|-0000-0-0-0-000-0-----------------|
A|-----------------1111-1-1-1111111-|
E|----------------------------------|


Ponte: (2:09)
G|------------------------------------------------------------------|
D|-0000000000000000----------------33333333332200-------------------|
A|-----------------1111111111001133--------------330000000000000000-|
E|------------------------------------------------------------------|

G|--------------------------------------------------|
D|---------0---------------0------------------------|
A|-1---------------1---------------3-33333333333333-|
E|--------------------------------------------------|


Refrão 3: (2:28)
G|----------------------------------|
D|----------------------------------| 
A|-1111111133333333-----------------| x2
E|-----------------1111-1-1-1-111-1-|

G|------------------|
D|----------23532---| 
A|-111111113-----53-| x2
E|------------------|

G|--------------------------------------------------|
D|--------------------------------------------------|
A|-1111111133333333----------------1111-1-1-1-111-1-|
E|-----------------1111-1-1-1-111-1-----------------|

G|----------------------------------|
D|-0000-0-0-0-000-0-----------------|
A|-----------------1111-1-1~--------|
E|----------------------------------|

Clipes

Cifra Club Pro

Aproveite o Cifra Club com benefícios exclusivos e sem anúncios
Cifra Club Pro
Aproveite o Cifra Club com benefícios exclusivos e sem anúncios