busca

Another Song About TV

Mxpx

Tom: E
intro
  E5 D5     C5     E5 D5     F5        E5  D5 B5
e:------------------------------------|-------------|
B:------------------------------------|-------------|
G:9--7-7-7--5-5-5--9--7-7-7--10-10-10-|-9--7--------|
D:9--7-7-7--5-5-5--9--7-7-7--10-10-10-|-9--7--9999--|
A:7--5-5-5--3-3-3--7--5-5-5--8--8--8--|-7--5--9999--|
E:------------------------------------|-------7777--|
  verse                     chorus     solo thingy
  G#5 A5 E5   G#5 A5 B5    E5          E5   B5   D#5  F#5    D#5
e:------------------------|-----------|-------------------------|
B:------------------------|-----------|-------------------------|
G:-------9999-------------|9-9-9999---|999-------8-8--11-11--88-|
D:-6--7--9999--6--7--9999-|9-9-9999---|999--9-9--8-8--11-11--88-|
A:-6--7--7777--6--7--9999-|7-7-7777---|777--9-9--6-6--9--9---66-|
E:-4--5--------4--5--7777-|-----------|-----7-7-----------------|
  another song.....        t.v.sucks..

Clipes

Cifra Club Pro

Aproveite o Cifra Club com benefícios exclusivos e sem anúncios
7 dias grátis
Cifra Club Pro
Aproveite o Cifra Club com benefícios exclusivos e sem anúncios
7 dias grátis