busca

Anywhere But Here

Mxpx

Tom: E
  Intro              
E :------------------|
B :------------------|
G :5-5----5-5--------|
D :5-5-7--5-5-7------|
A :3-3-7--3-3-7------|
E :----5------5------|

Verse 
E :----------------|------------------| 
B :----------------|------------------| 
G :7---4-----------|5-5----5-5--------| 
D :7---4---5-------|5-5-7--5-5-7------| 
A :5---2---5-------|3-3-7--3-3-7------| 
E :--------3-------|----5------5------| It seems like life.......

Fill 1 Fill 2 Fill 3 
E :----------------|------------------|----------------------------| 
B :----------------|------------------|----------------------------| 
G :7---------------|5-5----5-5--------|------------4-5-5-4-5-5--7-/| 
D :7---------------|5-5-7--5-5-7------|4-5-5-4-5-5-4-5-5-4-5-5--7-/| 
A :5---------------|3-3-7--3-3-7------|4-5-5-4-5-5-2-3-3-2-3-3--5-/| 
E :----------------|----5------5------|2-3-3-2-3-3-----------------| 

Chorus 1 
E :------------------| 
B :------------------| 
G :7-------4-5-------| 
D :7--4-5--4-5-------| 
A :5--4-5--2-3-------| 
E :---2-3------------| I should have saw.....

Chorus 2 
E :-------------------------------|------------------------| 
B :--7--7--7--7-x--7--7--7--7-----|------------------------| 
G :--7--7--7--7-x--7--7--7--7-----|------------4-5-5-4-5-5-| 
D :-(7)(7)(7)(7)x-(7)(7)(7)(7)----|4-5-5-4-5-5-4-5-5-4-5-5-| 
A :-------------------------------|4-5-5-4-5-5-2-3-3-2-3-3-| 
E :-------------------------------|2-3-3-2-3-3-------------|  And it's out......

Guitar Solo 
E :----------------------| 
B :------7----------5----| 
G :--7-7--h7----5-5--h5--| 
D :----------------------| 
A :----------------------| 
E :----------------------| 

Intro 
Verse x4
Fill 1 
Chorus 1 x4
Chorus 2 x4
Guitar Solo x8
Fill 2
Verse x4
Fill 2 
Fill 1 
Chorus 1 x4 
Chorus 2 x4 
Fill 2 
Verse x4 
Fill 2 
Fill 1 
Chorus 1 x4 
Chorus 2 x4 
Guitar Solo x8 
Fill 2 x2 
Fill 1 
Fill 3

Clipes

Cifra Club Pro

Aproveite o Cifra Club com benefícios exclusivos e sem anúncios
7 dias grátis
Cifra Club Pro
Aproveite o Cifra Club com benefícios exclusivos e sem anúncios
7 dias grátis