Bass So Low

Mxpx

Tom: G
#1t1#Guitarra começa aos 00:12:
#1t2#e|--------------------------------------------------------------------|
B|--------------------------------------------------------------------|
G|--------------------------------------------------------------------|
D|---4~---------------------------------------------------------------|
A|---4~---------------------------------------------------------------|
E|---2~---------------------------------------------------------------|#/1t2##/1t1#


#2t1#Intro:
#2t2#e|--------------------------------------------------------------------|
B|--------------------------------------------------------------------|
G|-----------------------4--4--444--6--6--6---------------------------|
D|---4--4--444--2--2--2--4--4--444--6--6--6---------------------------|
A|---4--4--444--2--2--2--2--2--222--4--4--4---------------------------|
E|---2--2--222--0--0--0-----------------------------------------------|#/2t2##/2t1#

#3t1##3t2#e|--------------------------------------------------------------------|
B|--------------------------------------------------------------------|
G|-----------------------4--4--444--5--6~-----------------------------|
D|---4--4--444--2--2--2--4--4--444--5--6~-----------------------------|
A|---4--4--444--2--2--2--2--2--222--3--4~-----------------------------|
E|---2--2--222--0--0--0-----------------------------------------------|#/3t2##/3t1#

#4t1#Verso:
#4t2#e|--------------------------------------------------------------------|
B|--------------------------------------------------------------------|
G|-----------6--------2-----------------------------------------------|
D|---4-------6-x3-----2-x5-----2--------------------------------------|
A|---4-x5----4--------0--------2-x3-----------------------------------|
E|---2-------------------------0--------------------------------------|#/4t2##/4t1#


#5t1#Refrão (Guitarra 1):
#5t2#e|--------------------------------------------------------------------|
B|--------------------------------------------------------------------|
G|-----------2---------------7------6---------------------------------|
D|---4-------2-x16---2-------7-x8---6-x8------------------------------|
A|---4-x16---0-------2-x16---5------4---------------------------------|
E|---2---------------0------------------------------------------------|#/5t2##/5t1#


#6t1#Refrão (Guitarra 2):
#6t2#e|--------------------------------------------------------------------|
B|--------------------------------------------------------------------|
G|--10-11--9--9--9-10-11----14-11-x4--13-11-x4---end-on-11~-----------|
D|-------11-11-11-------x6--------------------------------------------|
A|--------------------------------------------------------------------|
E|--------------------------------------------------------------------|#/6t2##/6t1#


#7t1#Intro:
#7t2#e|--------------------------------------------------------------------|
B|--------------------------------------------------------------------|
G|-----------------------4--4--444--6--6--6---------------------------|
D|---4--4--444--2--2--2--4--4--444--6--6--6---------------------------|
A|---4--4--444--2--2--2--2--2--222--4--4--4---------------------------|
E|---2--2--222--0--0--0-----------------------------------------------|#/7t2##/7t1#

#8t1##8t2#e|--------------------------------------------------------------------|
B|--------------------------------------------------------------------|
G|-----------------------4--4--444--5--6~-----------------------------|
D|---4--4--444--2--2--2--4--4--444--5--6~-----------------------------|
A|---4--4--444--2--2--2--2--2--222--3--4~-----------------------------|
E|---2--2--222--0--0--0-----------------------------------------------|#/8t2##/8t1#


#9t1#Verso 2:
#9t2#e|--------------------------------------------------------------------|
B|--------------------------------------------------------------------|
G|-----------6--------2-----------------------------------------------|
D|---4-------6-x3-----2-x5-----2--------------------------------------|
A|---4-x5----4--------0--------2-x3-----------------------------------|
E|---2-------------------------0--------------------------------------|#/9t2##/9t1#


#10t1#Refrão (Guitarra 1):
#10t2#e|--------------------------------------------------------------------|
B|--------------------------------------------------------------------|
G|-----------2---------------7------6---------------------------------|
D|---4-------2-x16---2-------7-x8---6-x8------------------------------|
A|---4-x16---0-------2-x16---5------4---------------------------------|
E|---2---------------0------------------------------------------------|#/10t2##/10t1#


#11t1#Refrão (Guitarra 2):
#11t2#e|--------------------------------------------------------------------|
B|--------------------------------------------------------------------|
G|---10-11--9--9--9-10-11----14-11-x4--13-11-x4---end-on-11~----------|
D|--------11-11-11-------x6-------------------------------------------|
A|--------------------------------------------------------------------|
E|--------------------------------------------------------------------|#/11t2##/11t1#


#12t1#Intro:
#12t2#e|--------------------------------------------------------------------|
B|--------------------------------------------------------------------|
G|-----------------------4--4--444--6--6--6---------------------------|
D|---4--4--444--2--2--2--4--4--444--6--6--6---------------------------|
A|---4--4--444--2--2--2--2--2--222--4--4--4---------------------------|
E|---2--2--222--0--0--0-----------------------------------------------|#/12t2##/12t1#


#13t1#Ponte (Guitarra 1):
#13t2#e|--------------------------------------------------------------------|
B|--------------------------------------------------------------------|
G|--------------------------------------------------------------------|
D|---7-7-6-7-7-6-7-9-7-6-7--7-6-7-7-6-7-7-6-7-9-7-6-7-6---6-----------|
A|------------------------------------------------------9-------------|
E|--------------------------------------------------------------------|#/13t2##/13t1#


#14t1#Ponte (Guitarra 2):
#14t2#e|--------------------------------------------------------------------|
B|--------------------------------------------------------------------|
G|---------7-----2----------------------------------------------------|
D|---4-----7-x8--2-x8--2----------------------------------------------|
A|---4-x8--5-----2-----2-x8-------------------------------------------|
E|---2-----------------0----------------------------------------------|#/14t2##/14t1#


Toca tudo 4 vezes, mas:
Guitarra 3 entra aos 2:00 e toca o seguinte:
#15t1##15t2#e|--------------------------------------------------------------------|
B|--------------------------------------------------------------------|
G|---6-6-4-6-6-4-6-7-6-4-6--6-4-6-6-4-6-6-4-6-7-6-4-6-4---4-----------|
D|------------------------------------------------------7-------------|
A|--------------------------------------------------------------------|
E|--------------------------------------------------------------------|#/15t2##/15t1#


#16t1#Guitarra 1:
#16t2#e|--------------------------------------------------------------------|
B|--------------------------------------------------------------------|
G|---7-7-------7-7-------9-9-9-9--------------------------------------|
D|---7-7--7-7--7-7--7-7--9-9-9-9--4-----------------------------------|
A|---5-5--7-7--5-5--7-7--7-7-7-7--4-x16-------------------------------|
E|--------5-5-------5-5-----------2-----------------------------------|#/16t2##/16t1#

#17t1##17t2#e|--------------------------------------------------------------------|
B|--------------------------------------------------------------------|
G|--------------------------------------------------------------------|
D|---7-6-7-7-6-7-7-6-7-9-7-6-7-6---6----------------------------------|
A|-------------------------------9------------------------------------|
E|--------------------------------------------------------------------|#/17t2##/17t1#


#18t1#Guitarra 3:
#18t2#e|--------------------------------------------------------------------|
B|--------------------------------------------------------------------|
G|---6-4-6-6-4-6-6-4-6-7-6-4-6-4---4----------------------------------|
D|-------------------------------7------------------------------------|
A|--------------------------------------------------------------------|
E|--------------------------------------------------------------------|#/18t2##/18t1#

#19t1##19t2#e|--------------------------------------------------------------------|
B|--------------------------------------------------------------------|
G|---7-----------7-----6----------------------------------------------|
D|---7-x8--4-----7-x8--6-x16------------------------------------------|
A|---5-----4-x8--5-----4----------------------------------------------|
E|---------2----------------------------------------------------------|#/19t2##/19t1#

#20t1##20t2#e|--------------------------------------------------------------------|
B|--------------------------------------------------------------------|
G|-------------7------------------------------------------------------|
D|--4----2--4--7-x3--7-----2--4-----2--4--5-5--5----------------------|
A|--4-x3-2--4--5-----7-x3--2--4-x3--2--4--5-5--5----------------------|
E|--2----0--2--------5-----0--2-----0--2--3-3--3----------------------|#/20t2##/20t1#

#21t1##21t2#e|--------------------------------------------------------------------|
B|--------------------------------------------------------------------|
G|-------------7------------------------------------------------------|
D|--4----2--4--7-x3--7-----2--4-----2--4-----5--5--5--4~--------------|
A|--4-x3-2--4--5-----7-x3--2--4-x3--2--4-x3--5--5--5--4~--------------|
E|--2----0--2--------5-----0--2-----0--2-----3--3--3--2~--------------|#/21t2##/21t1#
                                             .  .  . (Palm-mute)

"Bass Solo"

#22t1#Guitarra volta aos 3:01:
#22t2#e|--------------------------------------------------------------------|
B|--------------------------------------------------------------------|
G|-----------------------4--4--444--6--6--6---------------------------|
D|---4--4--444--2--2--2--4--4--444--6--6--6---------------------------|
A|---4--4--444--2--2--2--2--2--222--4--4--4---------------------------|
E|---2--2--222--0--0--0-----------------------------------------------|#/22t2##/22t1#

#23t1#Final:
#23t2#e|--------------------------------------------------------------------|
B|--------------------------------------------------------------------|
G|-----------------------4--4--444--5--6~-----------------------------|
D|---4--4--444--2--2--2--4--4--444--5--6~-----------------------------|
A|---4--4--444--2--2--2--2--2--222--3--4~-----------------------------|
E|---2--2--222--0--0--0-----------------------------------------------|#/23t2##/23t1#
Composição: Colaboração e revisão: Jean Sapia