busca

Bass So Low

Mxpx

Tom: C
Guitarra começa aos 00:12:
e|--------------------------------------------------------------------|
B|--------------------------------------------------------------------|
G|--------------------------------------------------------------------|
D|---4~---------------------------------------------------------------|
A|---4~---------------------------------------------------------------|
E|---2~---------------------------------------------------------------|


Intro:
e|--------------------------------------------------------------------|
B|--------------------------------------------------------------------|
G|-----------------------4--4--444--6--6--6---------------------------|
D|---4--4--444--2--2--2--4--4--444--6--6--6---------------------------|
A|---4--4--444--2--2--2--2--2--222--4--4--4---------------------------|
E|---2--2--222--0--0--0-----------------------------------------------|

e|--------------------------------------------------------------------|
B|--------------------------------------------------------------------|
G|-----------------------4--4--444--5--6~-----------------------------|
D|---4--4--444--2--2--2--4--4--444--5--6~-----------------------------|
A|---4--4--444--2--2--2--2--2--222--3--4~-----------------------------|
E|---2--2--222--0--0--0-----------------------------------------------|

Verso:
e|--------------------------------------------------------------------|
B|--------------------------------------------------------------------|
G|-----------6--------2-----------------------------------------------|
D|---4-------6-x3-----2-x5-----2--------------------------------------|
A|---4-x5----4--------0--------2-x3-----------------------------------|
E|---2-------------------------0--------------------------------------|


Refrão (Guitarra 1):
e|--------------------------------------------------------------------|
B|--------------------------------------------------------------------|
G|-----------2---------------7------6---------------------------------|
D|---4-------2-x16---2-------7-x8---6-x8------------------------------|
A|---4-x16---0-------2-x16---5------4---------------------------------|
E|---2---------------0------------------------------------------------|


Refrão (Guitarra 2):
e|--------------------------------------------------------------------|
B|--------------------------------------------------------------------|
G|--10-11--9--9--9-10-11----14-11-x4--13-11-x4---end-on-11~-----------|
D|-------11-11-11-------x6--------------------------------------------|
A|--------------------------------------------------------------------|
E|--------------------------------------------------------------------|


Intro:
e|--------------------------------------------------------------------|
B|--------------------------------------------------------------------|
G|-----------------------4--4--444--6--6--6---------------------------|
D|---4--4--444--2--2--2--4--4--444--6--6--6---------------------------|
A|---4--4--444--2--2--2--2--2--222--4--4--4---------------------------|
E|---2--2--222--0--0--0-----------------------------------------------|

e|--------------------------------------------------------------------|
B|--------------------------------------------------------------------|
G|-----------------------4--4--444--5--6~-----------------------------|
D|---4--4--444--2--2--2--4--4--444--5--6~-----------------------------|
A|---4--4--444--2--2--2--2--2--222--3--4~-----------------------------|
E|---2--2--222--0--0--0-----------------------------------------------|


Verso 2:
e|--------------------------------------------------------------------|
B|--------------------------------------------------------------------|
G|-----------6--------2-----------------------------------------------|
D|---4-------6-x3-----2-x5-----2--------------------------------------|
A|---4-x5----4--------0--------2-x3-----------------------------------|
E|---2-------------------------0--------------------------------------|


Refrão (Guitarra 1):
e|--------------------------------------------------------------------|
B|--------------------------------------------------------------------|
G|-----------2---------------7------6---------------------------------|
D|---4-------2-x16---2-------7-x8---6-x8------------------------------|
A|---4-x16---0-------2-x16---5------4---------------------------------|
E|---2---------------0------------------------------------------------|


Refrão (Guitarra 2):
e|--------------------------------------------------------------------|
B|--------------------------------------------------------------------|
G|---10-11--9--9--9-10-11----14-11-x4--13-11-x4---end-on-11~----------|
D|--------11-11-11-------x6-------------------------------------------|
A|--------------------------------------------------------------------|
E|--------------------------------------------------------------------|


Intro:
e|--------------------------------------------------------------------|
B|--------------------------------------------------------------------|
G|-----------------------4--4--444--6--6--6---------------------------|
D|---4--4--444--2--2--2--4--4--444--6--6--6---------------------------|
A|---4--4--444--2--2--2--2--2--222--4--4--4---------------------------|
E|---2--2--222--0--0--0-----------------------------------------------|


Ponte (Guitarra 1):
e|--------------------------------------------------------------------|
B|--------------------------------------------------------------------|
G|--------------------------------------------------------------------|
D|---7-7-6-7-7-6-7-9-7-6-7--7-6-7-7-6-7-7-6-7-9-7-6-7-6---6-----------|
A|------------------------------------------------------9-------------|
E|--------------------------------------------------------------------|


Ponte (Guitarra 2):
e|--------------------------------------------------------------------|
B|--------------------------------------------------------------------|
G|---------7-----2----------------------------------------------------|
D|---4-----7-x8--2-x8--2----------------------------------------------|
A|---4-x8--5-----2-----2-x8-------------------------------------------|
E|---2-----------------0----------------------------------------------|


Toca tudo 4 vezes, mas:
Guitarra 3 entra aos 2:00 e toca o seguinte:
e|--------------------------------------------------------------------|
B|--------------------------------------------------------------------|
G|---6-6-4-6-6-4-6-7-6-4-6--6-4-6-6-4-6-6-4-6-7-6-4-6-4---4-----------|
D|------------------------------------------------------7-------------|
A|--------------------------------------------------------------------|
E|--------------------------------------------------------------------|


Guitarra 1:
e|--------------------------------------------------------------------|
B|--------------------------------------------------------------------|
G|---7-7-------7-7-------9-9-9-9--------------------------------------|
D|---7-7--7-7--7-7--7-7--9-9-9-9--4-----------------------------------|
A|---5-5--7-7--5-5--7-7--7-7-7-7--4-x16-------------------------------|
E|--------5-5-------5-5-----------2-----------------------------------|

e|--------------------------------------------------------------------|
B|--------------------------------------------------------------------|
G|--------------------------------------------------------------------|
D|---7-6-7-7-6-7-7-6-7-9-7-6-7-6---6----------------------------------|
A|-------------------------------9------------------------------------|
E|--------------------------------------------------------------------|


Guitarra 3:
e|--------------------------------------------------------------------|
B|--------------------------------------------------------------------|
G|---6-4-6-6-4-6-6-4-6-7-6-4-6-4---4----------------------------------|
D|-------------------------------7------------------------------------|
A|--------------------------------------------------------------------|
E|--------------------------------------------------------------------|

e|--------------------------------------------------------------------|
B|--------------------------------------------------------------------|
G|---7-----------7-----6----------------------------------------------|
D|---7-x8--4-----7-x8--6-x16------------------------------------------|
A|---5-----4-x8--5-----4----------------------------------------------|
E|---------2----------------------------------------------------------|

e|--------------------------------------------------------------------|
B|--------------------------------------------------------------------|
G|-------------7------------------------------------------------------|
D|--4----2--4--7-x3--7-----2--4-----2--4--5-5--5----------------------|
A|--4-x3-2--4--5-----7-x3--2--4-x3--2--4--5-5--5----------------------|
E|--2----0--2--------5-----0--2-----0--2--3-3--3----------------------|

e|--------------------------------------------------------------------|
B|--------------------------------------------------------------------|
G|-------------7------------------------------------------------------|
D|--4----2--4--7-x3--7-----2--4-----2--4-----5--5--5--4~--------------|
A|--4-x3-2--4--5-----7-x3--2--4-x3--2--4-x3--5--5--5--4~--------------|
E|--2----0--2--------5-----0--2-----0--2-----3--3--3--2~--------------|
                                             .  .  . (Palm-mute)

"Bass Solo"

Guitarra volta aos 3:01:
e|--------------------------------------------------------------------|
B|--------------------------------------------------------------------|
G|-----------------------4--4--444--6--6--6---------------------------|
D|---4--4--444--2--2--2--4--4--444--6--6--6---------------------------|
A|---4--4--444--2--2--2--2--2--222--4--4--4---------------------------|
E|---2--2--222--0--0--0-----------------------------------------------|

Final:
e|--------------------------------------------------------------------|
B|--------------------------------------------------------------------|
G|-----------------------4--4--444--5--6~-----------------------------|
D|---4--4--444--2--2--2--4--4--444--5--6~-----------------------------|
A|---4--4--444--2--2--2--2--2--222--3--4~-----------------------------|
E|---2--2--222--0--0--0-----------------------------------------------|

Clipes