Begin To Start

Mxpx

Tom: G
#1t1#They say to me don't be hangin' on. If you won't go on do I want to?
#1t2#e|---------------------------------------------------------------------|
B|--9------------------------------------------------------------------|
G|--9--------------------8----------6-----------------8----------------|
D|--9--------------------9----------7-----------------9----------------|
A|--7--------------------9----------7-----------------9----------------|
E|--0--------------------7----------5-----------------7----------------|#/1t2##/1t1#
#2t1#Pray to see--Pray to know  Provide for me-- you won't let it go
#2t2#e|----------------------------------------------------------------------|
B|--9-------------------------------------------------------------------|
G|--9---------8-------------6--------------------------8----------------|
D|--9---------9-------------7--------------------------9----------------|
A|--7---------9-------------7--------------------------9----------------|
E|--0---------7-------------5--------------------------7----------------|#/2t2##/2t1#
Bridge:
fill #1 played after("...can't find my way")--also played as ending riff
#3t1##3t2#e|---------------------------------------------------------------------------
B|--------------9--------------------9---------------------------------------
G|---------8--------8-----------8---------8----------------------------------
D|---------------------------------------------------------------------------
A|----7-------------------7--------------------------------------------------
E|---------------------------------------------------------------------------#/3t2##/3t1#
#4t1#Life confuses me--can't find my way    Out of here I think I'd rather stay
#4t2#e|---------------------------------------------------------------------------
B|--------------------------------9------------------------------------------
G|--6----------8------------------9-----8-----------------------6----------8|
D|--7----------9------------------9-----9-----------------------7----------9|
A|--7----------9------------------7-----9-----------------------7----------9|
E|--5----------7------------------0-----7-----------------------5----------7|#/4t2##/4t1#
#5t1#I think I'd rather stay
#5t2#e|--------------------------------------------------------------------------|
B|--------9-----------------------------------------------------------------|
G|--------9-----------------------------------------------------------------|
D|--------9-----------------------------------------------------------------|
A|--------7-----------------------------------------------------------------|
E|--------0-----------------------------------------------------------------|#/5t2##/5t1#
Chorus:
When do I--begin to start; begin to let you into my heart?
#6t1##6t2#e|---------------------------------------------------------------------|
B|-9------------------------------------------------------------------|
G|-9-------8-----------------6-----------------------8----------------|
D|-9-------9-----------------7-----------------------9-------------------|
A|-7-------9-----------------7-----------------------9--------------------|
E|-0-------7-----------------5-----------------------7------------------|#/6t2##/6t1#
#7t1#What goes on--when I look at you? And by the way I know I feel it too
#7t2#e|---------------------------------------------------------------------------
B|-9----------------------------------------------------------------------|
G|-9----------8------------------------6--------------------8--------------|
D|-9----------9------------------------7--------------------9-------------|
A|-7----------9------------------------7--------------------9-------------|
E|-0----------7------------------------5--------------------7-------------|#/7t2##/7t1#
solo:guitar#1
palm muted throughout
#8t1##8t2#e|------------------------------------------------------------------------|
B|------------------------------------------------------------------------|
G|----9-9-9-------9-9-9------8-8-9-----------------------------2-2-2------|
D|----9-9-9-9-9-9-9-9-9-9-9-9-----9-9-9-------9-9-9------7-7-9-2-2-2-2-2-2|
A|----------7-7-7-------7-7-7-----9-9-9-9-9-9-9-9-9-9-9-9------------0-0-0|
E|--------------------------------------7-7-7-------7-7-7-----------------|#/8t2##/8t1#

#9t1##9t2#e|------------------------------------------------------------------|
B|------------------------------------------------------------------|
G|---2-2-2------2-2-4-4-4-4-------4-4-4------2-2-4------------------|
D|---2-2-2-2-2-2------4-4-4-4-4-4-4-4-4-4-4-4-----------------------|
A|---------0-0-0------------2-2-2-------2-2-2-----------------------|
E|------------------------------------------------------------------|#/9t2##/9t1#
solo:guitar#2
+  harmonics repeat throughout
#10t1##10t2#e|---------------7-7-7-7-7-7--------------7-7-7-7-7-7-----------5-5-5-5-5-5|
B|---7-7-7-7-7-7-------------7-7-7-7-7-7-------------7-7-7-7-7-7-----------|
G|-------------------------------------------------------------------------|
D|-------------------------------------------------------------------------|
A|-------------------------------------------------------------------------|
E|-------------------------------------------------------------------------|#/10t2##/10t1#
| /  slide up
| \  slide down
| h  hammer-on
| p  pull-off
| ~  vibrato
| +  harmonic
| x  Mute note
Composição: Colaboração e revisão: Paulo Jaffet