Chop Shop

Mxpx

Tom: G
Album: Secret Weapon

You may need to listen to the CD to get the correct rhythm and timing.

Intro:

Pick slide while on G

#1t1##1t2#e-------------------------------------------------|
B-------------------------------------------------|
G-------6-6-6-------6-6-6-------6-6-6-----3--6--5-|
D-5-5-5-6-6-6-5-5-5-6-6-6-5-5-5-6-6-6--5--3--8--7-|
A-5-5-5-4-4-4-5-5-5-4-4-4-5-5-5-4-4-4--5--1--6--5-|
E-3-3-3-------3-3-3-------3-3-3--------3----------|#/1t2##/1t1#

Verse: 2X

#2t1##2t2#e-------------------------------------------------------------------------|
B-------------------------------------------------------------------------|
G---------5-5-5-5---------5-5-5-5-5-5-5-5-3-3-3-3-10-10-10-10-10-10-10-10-|
D-5-5-5-5-7-7-7-7-5-5-5-5-7-7-7-7-5-5-5-5-3-3-3-3-10-10-10-10-10-10-10-10-|
A-5-5-5-5-5-5-5-5-5-5-5-5-5-5-5-5-3-3-3-3-1-1-1-1-8--8--8--8--8--8--8--8--|
E-3-3-3-3---------3-3-3-3-------------------------------------------------|#/2t2##/2t1#

Chorus: 2X

#3t1##3t2#e---------------------------------|
B---------4-4-4-4-----------------|
G---------5-5-5-5-6-6-6-6-5-5-5-5-|
D-5-5-5-5-5-5-5-5-8-8-8-8-7-7-7-7-|
A-5-5-5-5-3-3-3-3-6-6-6-6-5-5-5-5-|
E-3-3-3-3-------------------------|#/3t2##/3t1#

Post Chorus:

#4t1##4t2#e-------------------------------------------------|
B-------------------------------------------------|
G---------5-5-5-5---------5-5-5-5---------5-5-5-5-|
D-5-5-5-5-7-7-7-7-5-5-5-5-7-7-7-7-5-5-5-5-7-7-7-7-|
A-5-5-5-5-5-5-5-5-5-5-5-5-5-5-5-5-5-5-5-5-5-5-5-5-|
E-3-3-3-3---------3-3-3-3---------3-3-3-3---------|#/4t2##/4t1#

#5t1##5t2#e-------------------------------------------------|
B-------------------------------------------------|
G-------6-6-6-------6-6-6-------6-6-6-----3--6--5-|
D-5-5-5-6-6-6-5-5-5-6-6-6-5-5-5-6-6-6--5--3--8--7-|
A-5-5-5-4-4-4-5-5-5-4-4-4-5-5-5-4-4-4--5--1--6--5-|
E-3-3-3-------3-3-3-------3-3-3--------3----------|#/5t2##/5t1#

Verse 2: 2X

#6t1##6t2#e-------------------------------------------------------------------------|
B-------------------------------------------------------------------------|
G---------5-5-5-5---------5-5-5-5-5-5-5-5-3-3-3-3-10-10-10-10-10-10-10-10-|
D-5-5-5-5-7-7-7-7-5-5-5-5-7-7-7-7-5-5-5-5-3-3-3-3-10-10-10-10-10-10-10-10-|
A-5-5-5-5-5-5-5-5-5-5-5-5-5-5-5-5-3-3-3-3-1-1-1-1-8--8--8--8--8--8--8--8--|
E-3-3-3-3---------3-3-3-3-------------------------------------------------|#/6t2##/6t1#

Chorus: 2X

#7t1##7t2#e---------------------------------|
B---------4-4-4-4-----------------|
G---------5-5-5-5-6-6-6-6-5-5-5-5-|
D-5-5-5-5-5-5-5-5-8-8-8-8-7-7-7-7-|
A-5-5-5-5-3-3-3-3-6-6-6-6-5-5-5-5-|
E-3-3-3-3-------------------------|#/7t2##/7t1#

Post Chorus/Bridge:

#8t1##8t2#e-----------------------------------------------|
B-----------------------------------------------|
G-------6-6-6-------6-6-6-----------8----5----5-|
D-5-5-5-6-6-6-5-5-5-6-6-6-8----5----8----5----7-|
A-5-5-5-4-4-4-5-5-5-4-4-4-8----5----6----3----5-|
E-3-3-3-------3-3-3-------6----3----------------|#/8t2##/8t1#
                          ^x16 ^x16 ^x16 ^x8  ^x8

Verse 2: 2X

#9t1##9t2#e----------------------|
B----------------------|
G----5-----5--5--3--10-|
D-5--7--5--7--5--3--10-|
A-5--5--5--5--3--1--8--|
E-3-----3--------------|#/9t2##/9t1#

Sirens Part: 4X

#10t1##10t2#e-----------------------------------|
B-----------------------------------|
G---------7-7-7-7-8-8-8-8-----------|
D-5-5-5-5-7-7-7-7-8-8-8-8-8-8-7-7---|
A-5-5-5-5-5-5-5-5-6-6-6-6-8-8-7-7---|
E-3-3-3-3-----------------6-6-5-5---|#/10t2##/10t1#

Chorus: 2X

#11t1##11t2#e---------------------------------|
B---------4-4-4-4-----------------|
G---------5-5-5-5-6-6-6-6-5-5-5-5-|
D-5-5-5-5-5-5-5-5-8-8-8-8-7-7-7-7-|
A-5-5-5-5-3-3-3-3-6-6-6-6-5-5-5-5-|
E-3-3-3-3-------------------------|#/11t2##/11t1#

Post Chorus/Ending

#12t1##12t2#e-----------------------------------------------------------|
B-----------------------------------------------------------|
G---------5-5-5-5---------5-5-5-5---------5-5-5-5---3-6-5---|
D-5-5-5-5-7-7-7-7-5-5-5-5-7-7-7-7-5-5-5-5-7-7-7-7-5-3-8-7-5-|
A-5-5-5-5-5-5-5-5-5-5-5-5-5-5-5-5-5-5-5-5-5-5-5-5-5-1-6-5-5-|
E-3-3-3-3---------3-3-3-3---------3-3-3-3---------3-------3-|#/12t2##/12t1#
Composição: Colaboração e revisão: