busca

Christmas Day

Mxpx

Tom: G
intro

|---------------------------------------------------------|
|---------------------------------------------------------|
|-------12-11----9------12-11----9~12-11----9-------------|
|-x-x-x-------12---12-9-------12---------12---12-9s7-9----|
|-x-x-x------------------------------------------------10-|
|-x-x-x---------------------------------------------------|
       |repete dps dinovu|
abafe na 7ª casa em B

guita 2 intro :G E C

|--------------------------------------------------|
|--------------------------------------------------|
|--------------------------------------------------|
|-x-x-x---------------------------5-5-5-5----------|
|-x-x-x-5-5-5-5-5-5-5-5-5-2-2-2-2-3-3-3-3----------|
|-x-x-x-3-3-3-3-3-3-3-3-3-0-0-0-0------------------|

versos

guita 1 e 2  :G E C

|--------------------------------------------------|
|--------------------------------------------------|
|--------------------------------------------------|
|---------------------5-5-5-5-5--------------------|
|-5-5-5-5-5-2-2-2-2-2-3-3-3-3-3--------------------|
|-3-3-3-3-3-0-0-0-0-0------------------------------|
    PM.....   .......   .......
She waits and prays
Because it's almost Christmas day
A little faith
Could always go such a long way

pré refrão

guita 1 e 2  :D C D C D

|---------------------------------------------------|
|---------------------------------------------------|
|---------------------------------------------------|
|-7-7-7-7-7-5-5-5-5-5-7-7-7-7-7-5-5-5-5-5-3-3-3-3---|
|-5-5-5-5-5-3-3-3-3-3-5-5-5-5-5-3-3-3-3-3-5-5-5-5---|
|---------------------------------------------------|

There's something about the way you spend your
Christmas
There's something about the way you care
There's something about the way you care

refrão 

guita 1 e 2

|---------------------------------------------------|
|---------------------------------------------------|
|---------------------------------------------------|
|-----------7-7-7-7-7-5-5-5-5-5-5-------------------|
|-5-5-5-5-5-5-5-5-5-5-3-3-3-3-3-3-------------------|
|-3-3-3-3-3-----------------------------------------|

A little goes a long way
A little goes a long way 
A little goes a long way                                2x                       
A little goes along on your Christmas day

Intro

versos

There's Christmas cheer
Enough to last you three whole years
There's a mistletoe
If you were me then you would know

pré refrão

That there's something about the way you spend your
Christmas
There's something about the way you care
Something about the way you care

Refrão

A little goes a long way
A little goes a long way                    
A little goes a long way                      2x
A little goes along on your Christmas day

pré refrão 

The snow outside covers the ground
And as I watch it fall until
I think of her so far away
And how much I'd like to be with her on Christmas day
On Christmas day
On Christmas day
On Christmas day

refrão 

intro 2x

Clipes

Cifra Club Pro

Aproveite o Cifra Club com benefícios exclusivos e sem anúncios
Cifra Club Pro
Aproveite o Cifra Club com benefícios exclusivos e sem anúncios