Christmas Night Of Zombies

Mxpx

Tom: G
I think is like 90% correct, maybe more, you will find out.

#1t1#Intro
#1t2#E|----------------------------------------------------|
B|----------------------------------------------------|
G|----------------------------------------------------|
D|-5-5--8-8-8-8-8--------3-3--3-3-3--3--8-8--9--10-10-|
A|-5-5--8-8-8-8-8---x8---3-3--3-3-3--3--8-8--9--10-10-|
E|-3-3--6-6-6-6-6--------1-1--1-1-1--1--6-6--7---8--8-|#/1t2##/1t1#

#2t1#Verse
#2t2#E|-----------------------|
B|-----------------------|
G|-----------------------|
D|-5-5--8-8-8-8-8--------|
A|-5-5--8-8-8-8-8---x8---|
E|-3-3--6-6-6-6-6--------|#/2t2##/2t1#

#3t1#Pre-chorus
#3t2#E|----------------------------------------------------|
B|----------------------------------------------------|
G|-2-2-2-2--1-1-1-1-1--2-2-2-2-2-2-2-2-2-2------------|
D|-2-2-2-2--3-3-3-3-3--2-2-2-2-2-2-2-2-2-2------------|
A|-0-0-0-0--3-3-3-3-3--0-0-0-0-0-0-0-0-0-0------------|
E|----------------------------------------------------|#/3t2##/3t1#

#4t1#Chorus
#4t2#E|----------------------------------------------------|
B|----------------------------------------------------|
G|----------------------------------------------------|
D|-5-5-5-5-5--3-3-3-3-3--8--3--10--8--10--8---x2------|
A|-5-5-5-5-5--3-3-3-3-3--8--3--10--8--10--8-----------|
E|-3-3-3-3-3--1-1-1-1-1--6--1---8--6---8--6-----------|#/4t2##/4t1#

#5t1##5t2#E|----------------------------------------------------|
B|----------------------------------------------------|
G|----------------------------------------------------|
D|-5-5--8-8-8-8-8--------3-3--3-3-3--3--8-8--9--10-10-|
A|-5-5--8-8-8-8-8---x4---3-3--3-3-3--3--8-8--9--10-10-|
E|-3-3--6-6-6-6-6--------1-1--1-1-1--1--6-6--7---8--8-|#/5t2##/5t1#

#6t1#Verse
#6t2#E|-----------------------|
B|-----------------------|
G|-----------------------|
D|-5-5--8-8-8-8-8--------|
A|-5-5--8-8-8-8-8---x8---|
E|-3-3--6-6-6-6-6--------|#/6t2##/6t1#

#7t1#Pre-chorus
#7t2#E|----------------------------------------------------|
B|----------------------------------------------------|
G|-2-2-2-2--1-1-1-1-1--------2-2-2-2-2-2-2-2-2-2------|
D|-2-2-2-2--3-3-3-3-3---x3---2-2-2-2-2-2-2-2-2-2------|
A|-0-0-0-0--3-3-3-3-3--------0-0-0-0-0-0-0-0-0-0------|
E|----------------------------------------------------|#/7t2##/7t1#

#8t1#Chorus
#8t2#E|----------------------------------------------------|
B|----------------------------------------------------|
G|----------------------------------------------------|
D|-5-5-5-5-5--3-3-3-3-3--8--3--10--8--10--8---x2---5--|
A|-5-5-5-5-5--3-3-3-3-3--8--3--10--8--10--8--------5--|
E|-3-3-3-3-3--1-1-1-1-1--6--1---8--6---8--6--------3--|#/8t2##/8t1#

(Bass part)

Solo
/  slide up
#9t1##9t2#E|-----------------------------------------------------|
B|-----------------------------------------------------|
G|-----------------------------------------------------|
D|-----------------------------------------------------|
A|-----------------------------------------------------|
E|-11-10-8-6-3-6--11-10-8-6-3--11-10-8-6-3-6--10/14-17-|#/9t2##/9t1#

#10t1#Chorus
#10t2#E|----------------------------------------------------|
B|----------------------------------------------------|
G|----------------------------------------------------|
D|-5-5-5-5-5--3-3-3-3-3--8--3--10--8--10--8---x4------|
A|-5-5-5-5-5--3-3-3-3-3--8--3--10--8--10--8-----------|
E|-3-3-3-3-3--1-1-1-1-1--6--1---8--6---8--6-----------|#/10t2##/10t1#

#11t1#End
#11t2#E|------------------|
B|------------------|
G|------------------|
D|-8--3--10--8--5---|
A|-8--3--10--8--5---|
E|-6--1---8--6--3---|#/11t2##/11t1#

Hope you like it!!
Composição: Colaboração e revisão: