busca

Christmas Only Comes Once A Year

Mxpx

Tom: G
Tabbed by: Bair
Email: *
Tuning: Standard

Intro:
e|------------------------------------------------------------------|
B|------------------------------------------------------------------|
G|-----------------------------5------------------------------------|
D|--5--------2--------3--------5------------------------------------|
A|--5--------2--------3--------3------------------------------------|
E|--3--------0--------1---------------------------------------------|

Verse:
e|---------------------------------------------------------------|
B|---------------------------------------------------------------|
G|--------------------------------55555555-----------------------|
D|--55555555--22222222--33333333--55555555--(X4)-----------------|
A|--55555555--22222222--33333333--33333333-----------------------|
E|--33333333--00000000--11111111---------------------------------|

Chorus:
e|---------------------------------------------------------------|
B|---------------------------------------------------------------|
G|--------------------------------55555555-----------------------|
D|--22222222--33333333--55555555--55555555--(X2)-----------------|
A|--22222222--33333333--55555555--33333333-----------------------|
E|--00000000--11111111--33333333---------------------------------|

e|---------------------------------------------------------------|
B|---------------------------------------------------------------|
G|------------------------------------5555-----------------------|
D|--22222222--33333333--555555555555--5555-----------------------|
A|--22222222--33333333--555555555555--3333-----------------------|
E|--00000000--11111111--333333333333-----------------------------|

Outro:
e|---------------------------------------------------------------|
B|---------------------------------------------------------------|
G|---------------------------------------------------------------|
D|--2222--3333--2222--3333--2222--3--4--5------------------------|
A|--2222--3333--2222--3333--2222--3--4--5------------------------|
E|--0000--1111--0000--1111--0000--1--2--3------------------------|

I figured someone might want this song around this time of year

Clipes

Cifra Club Pro

Aproveite o Cifra Club com benefícios exclusivos e sem anúncios
Cifra Club Pro
Aproveite o Cifra Club com benefícios exclusivos e sem anúncios