busca

Coming Home For Christmas

Mxpx

Tom: E
Tabbed by: Bair
Email: *
Tuning: Standard

Intro:
e|---------------------------------------------------------------|
B|---------------------------------------------------------------|
G|---------------------------------------------------------------|
D|--77-7-77-77--77777777--99999999--2----------------------------|
A|--77-7-77-77--77777777--99999999--2----------------------------|
E|--55-5-55-55--55555555--77777777--0----------------------------|

Verse:
e|---------------------------------------------------------------|
B|---------------------------------------------------------------|
G|-----------9--6--4--2--4---------------------------------------|
D|--2--6--7--9--6--4--2--4--(Pick Slide)-------------------------|
A|--2--6--7--7--4--2--0--2---------------------------------------|
E|--0--4--5------------------------------------------------------|
"I've been gone so long, I'll explain it...."

e|------------------------------------------------------------------------|
B|------------------------------------------------------------------------|
G|--------------------------999999--666666--444444--222222--444444--------|
D|--222222--666666--777777--999999--666666--444444--222222--444444--(X2)--|
A|--222222--666666--777777--777777--444444--222222--000000--222222--------|
E|--000000--444444--555555------------------------------------------------|
"I've been gone so long, I'll explain it...."

Chorus:
e|---------------------------------------------------------------|
B|---------------------------------------------------------------|
G|----------------------66666666--22--44444444-------------------|
D|--22222222--33333333--66666666--22--44444444--22222222---------|
A|--22222222--33333333--44444444--00--22222222--22222222---------|
E|--00000000--11111111--------------------------00000000---------|
"I'm coming home for Christmas...."

Outro:
e|---------------------------------------------------------------|
B|---------------------------------------------------------------|
G|----------------------66666666--22--44444444-------------------|
D|--22222222--33333333--66666666--22--44444444--22222222---------|
A|--22222222--33333333--44444444--00--22222222--22222222---------|
E|--00000000--11111111--------------------------00000000---------|

Clipes

Cifra Club Pro

Aproveite o Cifra Club com benefícios exclusivos e sem anúncios
Cifra Club Pro
Aproveite o Cifra Club com benefícios exclusivos e sem anúncios