Coming Home For Christmas

Mxpx

Tom: G
Tabbed by: Bair
Email: *
Tuning: Standard

#1t1#Intro:
#1t2#e|---------------------------------------------------------------|
B|---------------------------------------------------------------|
G|---------------------------------------------------------------|
D|--77-7-77-77--77777777--99999999--2----------------------------|
A|--77-7-77-77--77777777--99999999--2----------------------------|
E|--55-5-55-55--55555555--77777777--0----------------------------|#/1t2##/1t1#

#2t1#Verse:
#2t2#e|---------------------------------------------------------------|
B|---------------------------------------------------------------|
G|-----------9--6--4--2--4---------------------------------------|
D|--2--6--7--9--6--4--2--4--(Pick Slide)-------------------------|
A|--2--6--7--7--4--2--0--2---------------------------------------|
E|--0--4--5------------------------------------------------------|#/2t2##/2t1#
"I've been gone so long, I'll explain it...."

#3t1##3t2#e|------------------------------------------------------------------------|
B|------------------------------------------------------------------------|
G|--------------------------999999--666666--444444--222222--444444--------|
D|--222222--666666--777777--999999--666666--444444--222222--444444--(X2)--|
A|--222222--666666--777777--777777--444444--222222--000000--222222--------|
E|--000000--444444--555555------------------------------------------------|#/3t2##/3t1#
"I've been gone so long, I'll explain it...."

#4t1#Chorus:
#4t2#e|---------------------------------------------------------------|
B|---------------------------------------------------------------|
G|----------------------66666666--22--44444444-------------------|
D|--22222222--33333333--66666666--22--44444444--22222222---------|
A|--22222222--33333333--44444444--00--22222222--22222222---------|
E|--00000000--11111111--------------------------00000000---------|#/4t2##/4t1#
"I'm coming home for Christmas...."

#5t1#Outro:
#5t2#e|---------------------------------------------------------------|
B|---------------------------------------------------------------|
G|----------------------66666666--22--44444444-------------------|
D|--22222222--33333333--66666666--22--44444444--22222222---------|
A|--22222222--33333333--44444444--00--22222222--22222222---------|
E|--00000000--11111111--------------------------00000000---------|#/5t2##/5t1#
Composição: Colaboração e revisão: