busca

Contention

Mxpx

Intro:
G|----------------|
D|-2-2------------| 
A|----3-3---------| (x4)
E|-------3-34-5-6-|


Verso 0:05:
G|------------------|
D|------------------| 
A|-------------3-33-| (x2)
E|-00-000-000-0-----|

G|----------------------------------|
D|----------------------------------|
A|---------33-333-3--------55-555-5-|
E|-00-000-0--------33-333-3---------|


Refrão 0:18:
G|-----------------|
D|-2---------------| 
A|----3------------| (x4)
E|-------3--4-5-6--|


Verso 0:25:
G|------------------|
D|------------------| 
A|-------------3-33-| (x2)
E|-00-000-000-0-----|

G|----------------------------------|
D|----------------------------------|
A|---------33-333-3--------55-555-5-|
E|-00-000-0--------33-333-3---------|


Refrão 0:39:
G|-----------------|
D|-2---------------| 
A|----3------------| (x4)
E|-------3--4-5-6--|


Ponte 0:45:
G|-------------------|
D|---------910-9-797-| 
A|-7-7---7-----------| (x7)
E|-------------------|

G|-------------------|
D|---------5---5-5---| 
A|-7-7---7-----------|
E|-------------------|


Refrão 1:00:
G|-----------------|
D|-2---------------| 
A|----3------------| (x8)
E|-------3--4-5-6--|

G|--------------|
D|-2------------| 
A|--------------|
E|--------------|

Clipes

Cifra Club Pro

Aproveite o Cifra Club com benefícios exclusivos e sem anúncios
Cifra Club Pro
Aproveite o Cifra Club com benefícios exclusivos e sem anúncios