busca

Do & Don't

Mxpx

Tom: G
Chorus 1: (Beat 1) 
G B5 A C 
still don't know what I wanna do 
G B5 A C 
I'd Probably still ask you if I knew 
G B5 A C 
What I'm doing now seems to be okay 
G B5 A C 
If it's Your will if it's your way 

Interlude: G B A C D (3x) 

Verse 1: 
G B5 
Don't wanna have to deal with pointless bureaucracy 
A 
Making sure when something goes on 
C 
Making sure that you agree 
G B5 
Well I don't even know what my choices are 
A C 
Should I fly a plane or should I drive a car, yeah 
G B5 
Nothing's clear to me my eyes won't do a thing for me 
A C 
I'll just wait right here 'till I am what I will be 
G 
Whatever it is I'm sure I'll know 
B5 
When the time comes He will show 
A C 
Me what to do and me where to go 

Solo 1: 
E|----------------------------------------------------|| 
B|----------------------------------------------------|| 
G|----------------------------5-----------------------|| Solo #1 (2x) 
D|--5-------------------------5---------4---5---4-----|| 
A|--5---------2---3---2-------3..---5--------------5--|| 
E|--3..---0---------------3---------------------------|| 

Where to go 

Chorus 1 (Beat 2): 
G E C D 
I still don't know what I wanna do 
G E C D 
Probably still ask You if I knew 
G E C D 
What I'm doing now seems to be okay 
G E C D 
If it's Your will if it's your way 

Solo 1: 
-------------------------------2--3--2-----|| 
----------------------------3-----------3--|| 
-------4--5--3--5--4--5...-----------------|| (2x) 
-5...--------------------------------------|| 
-------------------------------------------|| 
-------------------------------------------|| 

If it's your way 

Chorus 2: 
A D A D 
All I've got is a skateboard (Ahh) and a guitar (Ahh) 
A D A D 
Go to a lot of Punk shows (Ahh) and I drive a car 

Solo 2: 
-----------------------------|----------------------------------- 
--------8--8--8--10--10--12--|--8--8-----10--10------12----8...-- 
--0...--0--0--0--0---0---0---|--0--0-----0---0-------0-----0...-- 
-----------------------------|----------------------------------- 
-----------------------------|----------------------------------- 
-----------------------------|----------------------------------- 

----------------------------------------------------|| 
--7--8...--8--8--10--10--12--12--13--13--12--10--8--|| 
--0--0...--0--0--0---0---0---0---0---0---0---0---0--|| 
----------------------------------------------------|| 
----------------------------------------------------|| 
----------------------------------------------------|| 



Verse 2: 
G B5 
I don't like to work and I don't like to go to school 
A C 
Teacher thinks that I'm a girl and kids they think that I'm uncool 
G B5 
I'm just not interested in much of anything 
A C 
Wouldn't wanna be a president I don't wanna be a king 
G B5 
Just wanna ride my skateboard, Just wanna play my bass 
A C 
Every now and then strum a chord, sometimes land right on my face 
G B5 
Have you any ideas, I can't tell by a chart 
A C 
I wanna do what He want's me to, I wanna do my part, Yeah 

(Solo 1) (2x) Do my part 

(Chorus 1 Beat 1) (Solo 1) (2x) 

(Chorus 2) 

Solo 3: 
------------------------------------------------------------------------ 
---13--13--13--13--13--12--10--10--13--13--13--13--13--12--10--8--8...-- 
---0---0---0---0---0---0---0---0---0---0---0---0---0---0---0---0--0...-- 
------------------------------------------------------------------------ 
------------------------------------------------------------------------ 
------------------------------------------------------------------------ 

----------------------------------------------------------------|| 
8--10--12--13--12--10--8--8--13--13--10--10--12--12--10--10--8--|| 
0--0---0---0---0---0---0--0--0---0---0---0---0---0---0---0---0--|| 
----------------------------------------------------------------|| 
----------------------------------------------------------------|| 
----------------------------------------------------------------|| 

(Chorus 1 Beat 2) 

Outro: G B A C D (3x) G ... G

Clipes

Cifra Club Pro

Aproveite o Cifra Club com benefícios exclusivos e sem anúncios
7 dias grátis
Cifra Club Pro
Aproveite o Cifra Club com benefícios exclusivos e sem anúncios
7 dias grátis