Do Your Feet Hurt

Mxpx

Tom: G
Album: Life In General
Tabbed By: Josh Spencer

.=palm mute

#1t1#     Intro                      (Can I Call You Sweetheart)
#1t2#E-------------------------------------------------------------------------
B-------------------------------------------------------------------------
G-------------------------------------------------------------------------
D-------------------0------------------77777------------------------0-----
A---1-1-1-1-0---0-1---3-0-------77777--55555--------1-1-1-1-0---0-1---3-0-
E-------------3-----------1-----55555-------------------------3-----------1#/1t2##/1t1#
    
    Verse

#2t1##2t2#E--------------------------------------------------------------------------
B--------------------------------------------------------------------------
G--------------------------------------------------------------------------
D----------------77777---------------------0-------5-----------------77777
A--33333--77777--55555-----1-1-1-1-0--0--1--3-0----3---33333--77777--55555
E--11111--55555----------------------3----------1------11111--55555-------#/2t2##/2t1#
 
Verse Continued

#3t1##3t2#E--------------------------------------------------------------------------
B--------------------------------------------------------------------------
G--------------------------------------------------------------------------
D------------------0-------------------------------------------------------
A--1-1-1-1-0--0--1---3-0----2x---------------------------------------------
E------------3-----------1-------------------------------------------------#/3t2##/3t1#

Chorus

#4t1##4t2#E---------------------------------------------------------------------------
B---------------------------------------------------------------------------
G---------------------------------------------------------------------------
D--55555---33333---22222----7--5---33333---55555------------333--555--------
A--33333---11111---00000----5--3---11111---33333--333--555--111--333--------
E-------------------------------------------------111--333------------------
                                                  ...  ...  ...  ...#/4t2##/4t1#

Play Verse Again Twice
Then Do Chorus Again

#5t1#Bridge
#5t2#E---------------------------------------------------------------------------
B---------------------------------------------------------------------------
G---------------------------------------------------------------------------
D------77------3--5-------77------33--55-----33333--55555---------77777--333
A--33--55--55--1--3---33--55--55--11--33-----11111--33333--33333--55555--111
E--11------33---------11------33---------------------------11111------------
                                             .....  .....  .....  .....  ...#/5t2##/5t1#
#6t1##6t2#E---------------------------------------------------------------------------
B---------------------------------------------------------------------------
G---------------------------------------------------------------------------
D--33--55555------------------77777------------------0----------------------
A--11--33333----33333--77777--55555--1-1-1-1-0---0-1---3-0------------------
E---------------11111--55555-------------------3-----------1----------------
   ..  .....#/6t2##/6t1#
#7t1#   Outro
#7t2#E---------------------------------------------------------------------------
B---------------------------------------------------------------------------
G---------------------------------------------------------------------------
D---------77777---------33--55----------777777----------3--5----------------
A--33333--55555--77777--11--33---33333--555555--777777--1--3--3-------------
E--11111---------55555-----------11111----------555555--------1--let ring---#/7t2##/7t1#

there you have it. very easy to play.
Composição: Colaboração e revisão: