Don't Walk Away

Mxpx

Tom: G
#1t1#Riff:
#1t2#e|---------------------------------------------------------------|
B|---------------------------------------------------------------|
G|--------4------------------------------------------------------|
D|----1-4---4--(X4)----------------------------------------------|
A|--2------------------------------------------------------------|
E|---------------------------------------------------------------|#/1t2##/1t1#


#2t1#Piano Riff:
#2t2#e|-----11-------12-------11-------12-------14--------------------|
B|--------12-------12-------12-------12--------------------------|
G|--11-------11-------11-------11-------11-----------------------|
D|---------------------------------------------------------------|
A|---------------------------------------------------------------|
E|---------------------------------------------------------------|#/2t2##/2t1#


#3t1#Intro:
#3t2#e|---------------------------------------------------------------|
B|---------------------------------------------------------------|
G|---------------------------------------------------------------|
D|--2--(Deixe tocar)---------------------------------------------|
A|--2------------------------------------------------------------|
E|--0------------------------------------------------------------|#/3t2##/3t1#


#4t1#Verso:
#4t2#e|---------------------------------------------------------------|
B|---------------------------------------------------------------|
G|-----4444444444444444------------------------------------------|
D|--2--4444444444444444--2222222222222222--(X6)------------------|
A|--2--2222222222222222--2222222222222222------------------------|
E|--0--------------------0000000000000000------------------------|#/4t2##/4t1#


#5t1#Refrão:
#5t2#e|---------------------------------------------------------------|
B|---------------------------------------------------------------|
G|--4444444444444444---------------------------------------------|
D|--4444444444444444--2222222222222222--(X2)---------------------|
A|--2222222222222222--2222222222222222---------------------------|
E|--------------------0000000000000000---------------------------|#/5t2##/5t1#

#6t1##6t2#e|---------------------------------------------------------------|
B|---------------------------------------------------------------|
G|---------------------------------------------------------------|
D|--66666666--44444444--2222222222222222-------------------------|
A|--66666666--44444444--2222222222222222-------------------------|
E|--44444444--22222222--0000000000000000-------------------------|#/6t2##/6t1#


#7t1#Verso:
#7t2#e|---------------------------------------------------------------|
B|---------------------------------------------------------------|
G|-----4444444444444444------------------------------------------|
D|--2--4444444444444444--2222222222222222--(X6)------------------|
A|--2--2222222222222222--2222222222222222------------------------|
E|--0--------------------0000000000000000------------------------|#/7t2##/7t1#


#8t1#Refrão:
#8t2#e|---------------------------------------------------------------|
B|---------------------------------------------------------------|
G|--4444444444444444---------------------------------------------|
D|--4444444444444444--2222222222222222--(X2)---------------------|
A|--2222222222222222--2222222222222222---------------------------|
E|--------------------0000000000000000---------------------------|#/8t2##/8t1#

#9t1##9t2#e|---------------------------------------------------------------|
B|---------------------------------------------------------------|
G|---------------------------------------------------------------|
D|--66666666--44444444--2222222222222222-------------------------|
A|--66666666--44444444--2222222222222222-------------------------|
E|--44444444--22222222--0000000000000000-------------------------|#/9t2##/9t1#


#10t1#Interlúdio:
#10t2#e|---------------------------------------------------------------|
B|---------------------------------------------------------------|
G|--66666666------------66666666------------4--------------------|
D|--66666666--44444444--66666666--44444444--4--------------------|
A|--44444444--44444444--44444444--44444444--2--------------------|
E|------------22222222------------22222222-----------------------|#/10t2##/10t1#


#11t1#Refrão:
#11t2#e|---------------------------------------------------------------|
B|---------------------------------------------------------------|
G|--4444444444444444---------------------------------------------|
D|--4444444444444444--2222222222222222--(X2)---------------------|
A|--2222222222222222--2222222222222222---------------------------|
E|--------------------0000000000000000---------------------------|#/11t2##/11t1#

#12t1##12t2#e|---------------------------------------------------------------|
B|---------------------------------------------------------------|
G|---------------------------------------------------------------|
D|--66666666--44444444--2222222222222222-------------------------|
A|--66666666--44444444--2222222222222222-------------------------|
E|--44444444--22222222--0000000000000000-------------------------|#/12t2##/12t1#

#13t1#Final:
#13t2#e|---------------------------------------------------------------|
B|---------------------------------------------------------------|
G|---------------------------------------------------------------|
D|--4--(Deixe tocar)---------------------------------------------|
A|--4------------------------------------------------------------|
E|--2------------------------------------------------------------|#/13t2##/13t1#
Composição: Gérard RinaldiColaboração e revisão: Jean Sapia