busca

Don't Walk Away

Mxpx

Tom: E
Riff:
e|---------------------------------------------------------------|
B|---------------------------------------------------------------|
G|--------4------------------------------------------------------|
D|----1-4---4--(X4)----------------------------------------------|
A|--2------------------------------------------------------------|
E|---------------------------------------------------------------|


Piano Riff:
e|-----11-------12-------11-------12-------14--------------------|
B|--------12-------12-------12-------12--------------------------|
G|--11-------11-------11-------11-------11-----------------------|
D|---------------------------------------------------------------|
A|---------------------------------------------------------------|
E|---------------------------------------------------------------|


Intro:
e|---------------------------------------------------------------|
B|---------------------------------------------------------------|
G|---------------------------------------------------------------|
D|--2--(Deixe tocar)---------------------------------------------|
A|--2------------------------------------------------------------|
E|--0------------------------------------------------------------|


Verso:
e|---------------------------------------------------------------|
B|---------------------------------------------------------------|
G|-----4444444444444444------------------------------------------|
D|--2--4444444444444444--2222222222222222--(X6)------------------|
A|--2--2222222222222222--2222222222222222------------------------|
E|--0--------------------0000000000000000------------------------|


Refrão:
e|---------------------------------------------------------------|
B|---------------------------------------------------------------|
G|--4444444444444444---------------------------------------------|
D|--4444444444444444--2222222222222222--(X2)---------------------|
A|--2222222222222222--2222222222222222---------------------------|
E|--------------------0000000000000000---------------------------|

e|---------------------------------------------------------------|
B|---------------------------------------------------------------|
G|---------------------------------------------------------------|
D|--66666666--44444444--2222222222222222-------------------------|
A|--66666666--44444444--2222222222222222-------------------------|
E|--44444444--22222222--0000000000000000-------------------------|


Verso:
e|---------------------------------------------------------------|
B|---------------------------------------------------------------|
G|-----4444444444444444------------------------------------------|
D|--2--4444444444444444--2222222222222222--(X6)------------------|
A|--2--2222222222222222--2222222222222222------------------------|
E|--0--------------------0000000000000000------------------------|


Refrão:
e|---------------------------------------------------------------|
B|---------------------------------------------------------------|
G|--4444444444444444---------------------------------------------|
D|--4444444444444444--2222222222222222--(X2)---------------------|
A|--2222222222222222--2222222222222222---------------------------|
E|--------------------0000000000000000---------------------------|

e|---------------------------------------------------------------|
B|---------------------------------------------------------------|
G|---------------------------------------------------------------|
D|--66666666--44444444--2222222222222222-------------------------|
A|--66666666--44444444--2222222222222222-------------------------|
E|--44444444--22222222--0000000000000000-------------------------|


Interlúdio:
e|---------------------------------------------------------------|
B|---------------------------------------------------------------|
G|--66666666------------66666666------------4--------------------|
D|--66666666--44444444--66666666--44444444--4--------------------|
A|--44444444--44444444--44444444--44444444--2--------------------|
E|------------22222222------------22222222-----------------------|


Refrão:
e|---------------------------------------------------------------|
B|---------------------------------------------------------------|
G|--4444444444444444---------------------------------------------|
D|--4444444444444444--2222222222222222--(X2)---------------------|
A|--2222222222222222--2222222222222222---------------------------|
E|--------------------0000000000000000---------------------------|

e|---------------------------------------------------------------|
B|---------------------------------------------------------------|
G|---------------------------------------------------------------|
D|--66666666--44444444--2222222222222222-------------------------|
A|--66666666--44444444--2222222222222222-------------------------|
E|--44444444--22222222--0000000000000000-------------------------|

Final:
e|---------------------------------------------------------------|
B|---------------------------------------------------------------|
G|---------------------------------------------------------------|
D|--4--(Deixe tocar)---------------------------------------------|
A|--4------------------------------------------------------------|
E|--2------------------------------------------------------------|

Clipes