busca

Drowning

Mxpx

Intro 1:
G|----------------------------------------------------------------|
D|----------------------------------------------------------------| 
A|-77--------------44-4-4-444-4-4-400-000-000-000-022-2-2-222-2-2-|
E|----------------------------------------------------------------|

Intro 2:
G|----------------------------------------------------------------|
D|----------------------------------------------------------------| 
A|-77-777-777-777-744-4-4-444-4-4-400-000-000-000-022-2-2-222-2-2-|
E|----------------------------------------------------------------|

Verso (0:18):
G|----------------------------------------------------------------|
D|----------------------------------------------------------------| 
A|---------------------------------44-444-4-----------------------| x2
E|-00-000-000-000-044-444-444-444-4--------55-555-500-000-000-000-|

Pre Refrão (0:37):
G|------------------------------------------------|
D|------------------------------------------------| 
A|-22-222-222-222-2----------------22-222-222-222-|
E|-----------------55-555-500-000-0---------------|

G|--------------------------------|
D|--------------------------------| 
A|---------4~------2~-------------|
E|-5~-----------------------------|

G|--------------------------------|
D|--------------------------------| 
A|---------4~------2-222222222222-|
E|-5~-----------------------------|


Refrão (0:54):
G|----------------------------------------------------------------|
D|----------------------------------------------------------------| 
A|----------------------------------------------------------------|
E|-00-000-000-000-022-222-222-222-255-555-555-555-577-777-777-777-|

G|--------------------------------------------------|
D|--------------------------------------------------| 
A|--------------------------------------------------|
E|-9-999999999999998-888888888888882-2222225--57----|

Intro 2 (1:10)
Verso (1:20)
Pre Refrão (1:38)
Refrão (1:55)
Intro 1 (2:13)

[[Brak]]

Ponte (2:37):
G|------------------------------------------|
D|------------------------------------------| 
A|-----------------44--4-----------77777777-|
E|-00--0--00------------55--5--55-----------|

G|------------------------------------------|
D|------------------------------------------| 
A|-----------------44--4---------------797--|
E|-00--0--00------------55--5--55----99---9-|

G|------------------------------------------|
D|---------------------------------------67-| 
A|-----------------44--4---------------77---|
E|-00--0--00------------55--5--55-----------|

G|------------------------------------------|
D|------------------------------------------| 
A|-----------------44--4--------------------|
E|-00--0--00------------55--5--55--55555555-|


Pre refrão 2 (2:56):
G|------------------------------------------------|
D|------------------------------------------------| 
A|-22--2--22-----------------------22--2--22------|
E|-----------------55--55--00--00-----------------|

G|--------------------------------|
D|--------------------------------| 
A|---------4~------2~-------------|
E|-5~-----------------------------|

G|--------------------------------|
D|--------------------------------| 
A|---------4~------2-222222222222-|
E|-5~-----------------------------|

Chorus (3:14)
Intro 2 (3:31)

Final (3:40):
G|------------------------------------------------------------------|
D|------------------------------------------------------------------| 
A|-77-777-777-777-744-4-4-444-4-4-40~---------------2~--------------|
E|----------------------------------------------------------------0~|

Clipes

Cifra Club Pro

Aproveite o Cifra Club com benefícios exclusivos e sem anúncios
Cifra Club Pro
Aproveite o Cifra Club com benefícios exclusivos e sem anúncios