Educated Guess

Mxpx

Tom: G
~= let ring
*= palm mute
/ \= slide
X= pick scratch

#1t1#Intro 
#1t2#e|------------------------------|
B|------------------------------|
G|----------5~----------5-------|
D|-3~-7~-8~-5~-3~-7~-8~-5-8-7-5-|
A|-3~-7~-8~-3~-3~-7~-8~-3-8-7-5-|
E|-1~-5~-6~----1~-5~-6~---6-5-3-|#/1t2##/1t1#

#2t1#Verse 1 (Everything's gotten....)
#2t2#e|------------------------------------|
B|------------------------------------|
G|---------------------------55555555-|
D|-3333333-77777777-88888888-55555555-|  X2
A|-3333333-77777777-88888888-33333333-|
E|-1111111-55555555-66666666----------|#/2t2##/2t1#

#3t1#Verse 1 con't. (When you think back....)
#3t2#e|------------------------------------|
B|------------------------------------|
G|---------------------------5~-------|
D|-3~------7~-------8~-------5~-------|  X2
A|-3~------7~-------8~-------3~-------|
E|-1~------5~-------6~----------------|#/3t2##/3t1#

#4t1#Chorus  (All the things....)
#4t2#e|--------------------------------------------------|
B|--------------------------------------------------|
G|-------------------77777777-55555555---7-55555555-|
D|-88888888-33333333-77777777-55555555-8-7-55555555-|
A|-88888888-33333333-55555555-33333333-8-5-33333333-|
E|-66666666-11111111-------------------6------------|#/4t2##/4t1#

#5t1#Post-Chorus
#5t2#e|----------------------|
B|----------------------|
G|--------------------5-|
D|-3-X-2\3-X-2\333333-5-|
A|-3-X-2\3-X-2\333333-3-|
E|-1-X-0\1-X-0\111111---|#/5t2##/5t1#

#6t1#Verse 2 (When we were young....)
#6t2#e|------------------------------------|
B|------------------------------------|
G|---------------------------55555555-|
D|-3333333-77777777-88888888-55555555-|  X2
A|-3333333-77777777-88888888-33333333-|
E|-1111111-55555555-66666666----------|#/6t2##/6t1#

#7t1#Verse 2 con't. (Everything's gotten....)
#7t2#e|-----------|    |---------------|
B|-----------|    |---------------|
G|-------555-|    |----------5555-|
D|-3-7-8-555-| X2 |-3-7777-8-5555-| X1
A|-3-7-8-333-|    |-3-7777-8-3333-|
E|-1-5-6-----|    |-1-5555-6------|#/7t2##/7t1#

#8t1#Chorus  (All the things....)
#8t2#e|--------------------------------------------------|
B|--------------------------------------------------|
G|-------------------77777777-55555555---7-55555555-|
D|-88888888-33333333-77777777-55555555-8-7-55555555-| X2
A|-88888888-33333333-55555555-33333333-8-5-33333333-|
E|-66666666-11111111-------------------6------------|#/8t2##/8t1#

#9t1#Outro
#9t2#e|------------------------|
B|------------------------|
G|--------------------5---|
D|-3-X-2\3-X-2\333333-5-3-|
A|-3-X-2\3-X-2\333333-3-3-|
E|-1-X-0\1-X-0\111111---1-|#/9t2##/9t1#
Composição: Colaboração e revisão: Paulo Jaffet