busca

Empire

Mxpx

Tom: C
Riff principal                    Verse (Sink your teeth into me...)

e|-------------------------------|-----|
B|-------------------------------|-----|
G|---222----------------777------|-~2--|
D|---222----02-----333--777------|-~2--|
A|---000-023--320--333--555------|-~0--|
E|---------------31111-----------|-----|

...please!                  Pre Refrão (We are fallen angels...)

e|-------------------------|----------------------------------------------|
B|-------------------------|----------------------------------------------|
G|---22--xx555-------------|-----------5-55-5555--------101010-999-777----|
D|---22--xx555--xx33333333-|-7-77-7777-5-55-5555-3-333---x-x-x-xxx-xxx----|
A|---00--xx333--xx33333333-|-7-77-7777-3-33-3333-3-333---8-8-8-777-555----|
E|--------------xx11111111-|-5-55-5555-----------1-111--------------------|

Refrão (You are dead...)                    Riff (Just look...)          

e|------------------------------------------|----------------------------|
B|------------------------------------------|----------------------------|
G|-2-22-2222-5-55-5555----------------------|-22-xx-101010-22-xx-101010--|
D|-2-22-2222-5-55-5555-2-22-2222-5-55-5555--|-22-xx--x-x-x-22-xx--x-x-x--|
A|-0-00-0000-3-33-3333-2-22-2222-5-55-5555--|-00-xx--8-8-8-00-xx--8-8-8--|
E|---------------------0-00-0000-3-33-3333--|----------------------------|

Riff v1

e|--------------------------|
B|--------------------------|
G|-2-2-------22---------22--|
D|-2-2----0--22----0----22--|
A|-0-0-023-3200-023-320-00--|
E|--------------------------|


Riff v2

e|-------------------------------------|
B|-------------------------------------|
G|-22-999-22-101010-22--777-555-444-2~-|
D|-22-xxx-22--x-x-x-22--xxx-xxx-xxx-2~-|
A|-00-777-00--8-8-8-00--555-333-222-0~-|
E|-------------------------------------|


Ponte (My head turns...)

e|-------------|-------------------------------------|
B|-------------|-------------------------------------|
G|-2~-5--------|-22222222-55555555-------------------|
D|-2~-5~-2~-5~-|-22222222-55555555-22222222-55555555-|
A|-0~-3~-2~-5~-|-00000000-33333333-22222222-55555555-|
E|-------0~-3~-|-------------------00000000-33333333-|


Final

e|--------------------------|
B|--------------------------|
G|-2~-----------------------|
D|-2~-----------------------|
A|-0~-----------------------|
E|--------------------------|

Ordem:

Introdução (Bateria)
Riff Principal x4
Verso
Pre Refrão x2
Refrão x2
Riff
Riff v1
Riff
Riff v2
Verso
Pre refrão x2
Refrão x2
Riff
Riff v1
Riff
Riff v2
Ponte
Refrão x4
Final

Clipes

Cifra Club Pro

Aproveite o Cifra Club com benefícios exclusivos e sem anúncios
7 dias grátis
Cifra Club Pro
Aproveite o Cifra Club com benefícios exclusivos e sem anúncios
7 dias grátis