Every Light

Mxpx

Tom: G
Tabbed by: Bair
Email: *
Tuning: Standard

#1t1#Intro/ Main Riff:
#1t2#e|---------------------------------------------------------------|
B|---------------------------------------------------------------|
G|-77------999--77-----------------------------------------------|
D|-77--77--999--77-----------------------------------------------|
A|-55--77--777--55-----------------------------------------------|
E|-----55--------------------------------------------------------|#/1t2##/1t1#

#2t1#Verse:
#2t2#e|---------------------------------------------------------------| 
B|---------------------------------------------------------------|
G|-77777777-77------999--77--4-444-------------------------------|
D|-77777777-77--77--999--77--4-444--7-777--5-555555--(X2)--------|
A|-55555555-55--77--777--55--2-222--7-777--5-555555--------------|
E|--------------55------------------5-555--3-333333--------------|#/2t2##/2t1#

#3t1#Pre- Chorus:
#3t2#e|---------------------------------------------------------------|
B|---------------------------------------------------------------|
G|---------------77777777----------------------------------------|
D|-33-33--55-55--77777777--999999--777777--555555----------------|
A|-33-33--55-55--55555555--999999--777777--555555----------------|
E|-11-11--33-33------------777777--555555--333333----------------|#/3t2##/3t1#

#4t1#Chorus:
#4t2#e|---------------------------------------------------------------|
B|---------------------------------------------------------------|
G|--777777-------------------------------------------------------|
D|--777777--777777--555555--(X2)---------------------------------|
A|--555555--777777--555555---------------------------------------|
E|----------555555--333333---------------------------------------|#/4t2##/4t1#

#5t1#Bridge:
#5t2#e|---------------------------------------------------------------|
B|---------------------------------------------------------------|
G|---------------------------------------------------------------|
D|--99999999--77777777--55555555--(X2)---------------------------|
A|--99999999--77777777--55555555---------------------------------|
E|--77777777--55555555--33333333---------------------------------|#/5t2##/5t1#

#6t1##6t2#e|---------------------------------------------------------------|
B|---------------------------------------------------------------|
G|-777777--------------------------------------------------------|
D|-777777--777777--999999--555555--77--(X2)----------------------|
A|-555555--777777--999999--555555--77----------------------------|
E|---------555555--777777--333333--55----------------------------|#/6t2##/6t1#
Composição: Colaboração e revisão: