False Fiction

Mxpx

A
123
X02220
A5
12
X022XX
B
234
X24442
D
123
XX0232
D5
134
X577XX
E
123
022100
G
123
320003
Tom: G
Intro
e)-----------------------------------------------------------|
B)-----------------------------------------------------------|
G)-----------------------------------------------------------|
D)---7--7--7--7--X--X--X--7--7--7--7--X--X--X----------------|
A)---7--7--7--7--X--X--X--7--7--7--7--X--X--X----------------|
E)---5--5--5--5--X--X--X--5--5--5--5--X--X--X----------------|

e)----------------------------------------------------------|
B)----------------------------------------------------------|
G)---7--7--7--7--X--X--X--7--7--7--7--X--X--X---------------|
D)---7--7--7--7--X--X--X--7--7--7--7--X--X--X---------------|
A)---5--5--5--5--X--X--X--5--5--5--5--X--X--X---------------|
E)----------------------------------------------------------|

Verse
A5   D5

Chorus
A5  D5  A5  D5

Lyrics
They guarantee our freedom
But freedom isn't real
Unless you know christ
You won't know how I feel
Infections of the way, things were suppossed to be
The mental disorder of society

False finite ways of thinking
False fiction they're beleiving
Entropy is still promoting chaos
It's chaos, it's your loss
Maybe the world has stopped thinking
Maybe all their minds are shrinking
Your failed system is including chaos
It's chaos, it's your loss

Building, moving forward, never looking back
Taking what the world has offered
But you forgot to pack
Common sense, logic, science
A humble self-esteem
Live to die, and die to gain
Abort the selfish scene
Composição: Gérard RinaldiColaboração e revisão: Paulo Jaffet