Final Slowdance

Mxpx

Tom: G
x palm mute
/ slide

Intro

#1t1##1t2#E---------------------------1-1----
B-----------------------2-4--------
G-7--------------------------------
D-7--------------------------------
A-5--------------------------------
E----------------------------------#/1t2##/1t1#
  let ring...bass fill


#2t1##2t2#----pic scratch-----#/2t2##/2t1#


Verse for whole song

#3t1#"Takin' all the space up in my head...."
#3t2#E------------------------------------------
B------------------------------------------
G-----------------------xx7xx7xx7xx7-------
D-4444444444444444444---xx7xx7xx7xx7-------
A-4444444444444444444---xx5xx5xx5xx5-------
E-2222222222222222222----------------------#/3t2##/3t1#


#4t1#"All the things we could...."
#4t2#E------------------------------------------
B------------------------------------------
G------------------------------------------
D-44444444444444455555555555577777777777777
A-44444444444444455555555555577777777777777
E-22222222222222233333333333355555555555555#/4t2##/4t1#


#5t1#"Hard for me to try and understand...."
#5t2#E------------------------------------------
B------------------------------------------
G-----------------------xx7xx7xx7xx7-------
D-4444444444444444444---xx7xx7xx7xx7-------
A-4444444444444444444---xx5xx5xx5xx5-------
E-2222222222222222222----------------------#/5t2##/5t1#


#6t1#"The way I think about you..."
#6t2#E------------------------------------------
B------------------------------------------
G------------------------------------------
D-44444444444444455555555555557777777777777
A-44444444444444455555555555557777777777777
E-22222222222222233333333333335555555555555#/6t2##/6t1#


Chorus

#7t1#"Am I running out of time...."
#7t2#E------------------------------------------
B------------------------------------------
G-7777777777777---------------4444444444444
D-7777777777777-4444444444444-4444444444444
A-5555555555555-4444444444444-2222222222222
E---------------2222222222222--------------#/7t2##/7t1#


#8t1##8t2#E-------------------
B-------------------
G-------------------
D-55555555/777777777
A-55555555/777777777
E-33333333/555555555#/8t2##/8t1#



#9t1#"I know I missed the marking...."
#9t2#E------------------------------------------
B------------------------------------------
G-7777777777777---------------4444444444444
D-7777777777777-4444444444444-4444444444444
A-5555555555555-4444444444444-2222222222222
E---------------2222222222222--------------#/9t2##/9t1#

#10t1##10t2#E-------------------
B-------------------
G-------------------
D-55555555/777777777
A-55555555/777777777
E-33333333/555555555#/10t2##/10t1#


#11t1#"My words don't come out easily..."
#11t2#E------------------------------------------
B------------------------------------------
G------------------------------------------
D-5555555555555555555555/777777777777777777
A-5555555555555555555555/777777777777777777
E-3333333333333333333333/555555555555555555#/11t2##/11t1#


#12t1#"So i will tell you honestly...."
#12t2#E------------------------------------------
B------------------------------------------
G-777777777777-----------------------------
D-777777777777-44444444444444444-----------
A-555555555555-44444444444444444-----------
E--------------22222222222222222-----------#/12t2##/12t1#


#13t1#"No one has to spend eternity..."
#13t2#E----------------------------
B----------------------------
G----------------------------
D-555555555555777777777777777
A-555555555555777777777777777
E-333333333333555555555555555#/13t2##/13t1#

**Intro Again** 
 
#14t1##14t2#--pic slide--#/14t2##/14t1#

**Verse Again**
Composição: Colaboração e revisão: Paulo Jaffet