Gimme Christmas

Mxpx

Tom: G
#1t1#Intro 1 (Solo):
#1t2#e|-----------------------------------|
B|-----------------------------------|
G|--------------------7-4------------|
D|--7s9--7s5---5-7-9-------7-5-------|
A|-----------------------------------|
E|-----------------------------------|#/1t2##/1t1#

#2t1##2t2#e|---------------------------------------------------------|
B|---------------------------------------------------------|
G|-----------------7-4-------------------------------7-----|
D|-7s9--7s2-5-7-9------7-5---------7s9--7s2---5-7-9--------|
A|---------------------------------------------------------|
E|---------------------------------------------------------|#/2t2##/2t1#


#3t1#Intro 1 (Base):
#3t2#e|----------------------------------------------------|------|
B|----------------------------------------------------|------|
G|----------------------------------------------------|------|
D|----------------------------------------------------|------|
A|-5-5-5-5-5-----5-5-5-5-5-5-5-5-5-5-5-5----5-5-5-5-5-|------|
E|-3-3-3-3-3-----3-3-3-3-3-3-3-3-3-3-3-3----3-3-3-3-3-|------|#/3t2##/3t1#

#4t1##4t2#e|----------------------------------------------------------|
B|----------------------------------------------------------|
G|----------------------------------------------------------|
D|----------------------------------------------------------|
A|-10-10-10-10-10-----10-10-10-10-10-10-10-10-10-10-10-10---|
E|-8--8--8--8--8------8--8--8--8--8--8--8--8--8--8--8--8----|#/4t2##/4t1#


#5t1#Verso (Base):
#5t2#e|---------------------------------------------------------------|--------|
B|---------------------------------------------------------------|--------|
G|---------------------------------------------------------------|--------|
D|---------------------------------------------------------------|--------|
A|-5-5-5-5-5-----5-5-5-5-5-5-5-5-5-5-5-5---5-5-5-5-5-------------|--------|
E|-3-3-3-3-3-----3-3-3-3-3-3-3-3-3-3-3-3---3-3-3-3-3-------------|--------|#/5t2##/5t1#

#6t1##6t2#e|-----------------------------------------------------------------------|
B|-----------------------------------------------------------------------|
G|-----------------------------------------------------------------------|
D|-----------------------------------------------------------------------|
A|-10-10-10-10-10---10-10-10-10-10-10-10-10-10-10-10-10---10-10-10-10-10-|
E|-8--8--8--8--8----8--8--8--8--8--8--8--8--8--8--8--8----8--8--8--8--8--|#/6t2##/6t1#

#7t1##7t2#e|------------------------------------------------------------------------|
B|------------------------------------------------------------------------|
G|------------------------------------------------------------------------|
D|--9-9-9-9-9---7-7-7-7-7-7-7---------------------------------------------|
A|--7-7-7-7-7---5-5-5-5-5-5-5---5-5-5-5-5---------------------------------|
E|------------------------------3-3-3-3-3---------------------------------|#/7t2##/7t1#

#8t1##8t2#e|---------------------------------------------------------------------|
B|---------------------------------------------------------------------|
G|---------------------------------------------------------------------|
D|-----------x-x-x-x-------------------------x-x-x-x-------------------|
A|-5-5-5-5-5-x-x-x-x-5-5-5-5-5-5-5-5-5-5-5-5-x-x-x-x-5-5-5-5-5---------|
E|-3-3-3-3-3-x-x-x-x-3-3-3-3-3-3-3-3-3-3-3-3-x-x-x-x-3-3-3-3-3---------|#/8t2##/8t1#

#9t1##9t2#e|-----------------------------------------------------------------------|
B|-----------------------------------------------------------------------|
G|-----------------------------------------------------------------------|
D|----------------x-x-x-x--------------------------------------x-x-x-x---|
A|-10-10-10-10-10-x-x-x-x-10-10-10-10-10-10-10-10-10-10-10-10--x-x-x-x---|
E|-8--8--8--8--8--x-x-x-x-8--8--8--8--8--8--8--8--8--8--8--8---x-x-x-x---|#/9t2##/9t1#

#10t1##10t2#e|---------------------------------------------------------------------|
B|---------------------------------------------------------------------|
G|-------------------9-9-9-9-9-x-x-x-x-7-7-7-7-7-----------------------|
D|-------------------9-9-9-9-9-x-x-x-x-7-7-7-7-7--------------x-x-x-x--|
A|--10-10-10-10-10---7-7-7-7-7-x-x-x-x-5-5-5-5-5----5-5-5-5-5-x-x-x-x--|
E|--8--8--8--8--8-----------------------------------3-3-3-3-3-x-x-x-x--|#/10t2##/10t1#

#11t1##11t2#e|-------------------------|
B|-------------------------|
G|-------------------------|
D|-------------------------|
A|-5-5-5-5-5-5-5-----------|
E|-3-3-3-3-3-3-3-----------|#/11t2##/11t1#


#12t1#Ponte:
#12t2#e|-------------------------------------------------------------------------|
B|-------------------------------------------------------------------------|
G|-------------------------------------------------------------------------|
D|-5-5-5-5-5-5-5-5-5-5-5--7-7-7-7-7-7-7-7-7-7-7-7--9-9-9-9-9-9-9-9-9-9-9-9-|
A|-3-3-3-3-3-3-3-3-3-3-3--5-5-5-5-5-5-5-5-5-5-5-5--7-7-7-7-7-7-7-7-7-7-7-7-|
E|-------------------------------------------------------------------------|#/12t2##/12t1#

#13t1##13t2#e|-------------------------------------------------------------------------|
B|-------------------------------------------------------------------------|
G|------------------------------------------------------Deixe a nota soar--|
D|--7-7-7-7-7-9-9-9-9-9--5-5-5-5-5-5-5-5-5-5-5-5----7~~~-------------------|
A|--5-5-5-5-5-7-7-7-7-7--3-3-3-3-3-3-3-3-3-3-3-3----5~~~-------------------|
E|-------------------------------------------------------------------------|#/13t2##/13t1#


#14t1#Verso (Solo):
#14t2#e|---------------------------------------------|
B|---------------------------------------------|
G|--------------------7-4----------------------|
D|--7s9--7s5---5-7-9-------7-5------7s9--7s5\--|
A|---------------------------------------------|
E|---------------------------------------------|#/14t2##/14t1#


#15t1#Refrão (Base):
#15t2#e|---------------------------------------------------------------------|
B|---------------------------------------------------------------------|
G|---------------------------------------------------------------------|
D|-----------x-x-x-x-------------------------x-x-x-x-------------------|
A|-5-5-5-5-5-x-x-x-x-5-5-5-5-5-5-5-5-5-5-5-5-x-x-x-x-5-5-5-5-5---------|
E|-3-3-3-3-3-x-x-x-x-3-3-3-3-3-3-3-3-3-3-3-3-x-x-x-x-3-3-3-3-3---------|#/15t2##/15t1#

#16t1##16t2#e|-----------------------------------------------------------------------|
B|-----------------------------------------------------------------------|
G|-----------------------------------------------------------------------|
D|----------------x-x-x-x--------------------------------------x-x-x-x---|
A|-10-10-10-10-10-x-x-x-x-10-10-10-10-10-10-10-10-10-10-10-10--x-x-x-x---|
E|-8--8--8--8--8--x-x-x-x-8--8--8--8--8--8--8--8--8--8--8--8---x-x-x-x---|#/16t2##/16t1#

#17t1##17t2#e|---------------------------------------------------------------------|
B|---------------------------------------------------------------------|
G|-------------------9-9-9-9-9-x-x-x-x-7-7-7-7-7-----------------------|
D|-------------------9-9-9-9-9-x-x-x-x-7-7-7-7-7--------------x-x-x-x--|
A|--10-10-10-10-10---7-7-7-7-7-x-x-x-x-5-5-5-5-5----5-5-5-5-5-x-x-x-x--|
E|--8--8--8--8--8-----------------------------------3-3-3-3-3-x-x-x-x--|#/17t2##/17t1#

#18t1##18t2#e|-------------------------|
B|-------------------------|
G|-------------------------|
D|-------------------------|
A|-5-5-5-5-5-5-5-----------|
E|-3-3-3-3-3-3-3-----------|#/18t2##/18t1#


[Ponte de novo]

[Intro 1] (x2)


#19t1#Final:
#19t2#e|------------------------------------------------------------------|
B|------------------------------------------------------------------|
G|--------------------7-4------------------------7-4----------------|
D|--7s9--7s5---5-7-9-------7-5----7s9-7s5--5-7-9------5~~~~~~~~-----|
A|------------------------------------------------------------------|
E|------------------------------------------------------------------|#/19t2##/19t1#
Composição: Colaboração e revisão: Jean Sapia