busca

Gimme Christmas

Mxpx

Tom: G
Intro 1 (Solo):
e|-----------------------------------|
B|-----------------------------------|
G|--------------------7-4------------|
D|--7s9--7s5---5-7-9-------7-5-------|
A|-----------------------------------|
E|-----------------------------------|

e|---------------------------------------------------------|
B|---------------------------------------------------------|
G|-----------------7-4-------------------------------7-----|
D|-7s9--7s2-5-7-9------7-5---------7s9--7s2---5-7-9--------|
A|---------------------------------------------------------|
E|---------------------------------------------------------|


Intro 1 (Base):
e|----------------------------------------------------|------|
B|----------------------------------------------------|------|
G|----------------------------------------------------|------|
D|----------------------------------------------------|------|
A|-5-5-5-5-5-----5-5-5-5-5-5-5-5-5-5-5-5----5-5-5-5-5-|------|
E|-3-3-3-3-3-----3-3-3-3-3-3-3-3-3-3-3-3----3-3-3-3-3-|------|

e|----------------------------------------------------------|
B|----------------------------------------------------------|
G|----------------------------------------------------------|
D|----------------------------------------------------------|
A|-10-10-10-10-10-----10-10-10-10-10-10-10-10-10-10-10-10---|
E|-8--8--8--8--8------8--8--8--8--8--8--8--8--8--8--8--8----|


Verso (Base):
e|---------------------------------------------------------------|--------|
B|---------------------------------------------------------------|--------|
G|---------------------------------------------------------------|--------|
D|---------------------------------------------------------------|--------|
A|-5-5-5-5-5-----5-5-5-5-5-5-5-5-5-5-5-5---5-5-5-5-5-------------|--------|
E|-3-3-3-3-3-----3-3-3-3-3-3-3-3-3-3-3-3---3-3-3-3-3-------------|--------|

e|-----------------------------------------------------------------------|
B|-----------------------------------------------------------------------|
G|-----------------------------------------------------------------------|
D|-----------------------------------------------------------------------|
A|-10-10-10-10-10---10-10-10-10-10-10-10-10-10-10-10-10---10-10-10-10-10-|
E|-8--8--8--8--8----8--8--8--8--8--8--8--8--8--8--8--8----8--8--8--8--8--|

e|------------------------------------------------------------------------|
B|------------------------------------------------------------------------|
G|------------------------------------------------------------------------|
D|--9-9-9-9-9---7-7-7-7-7-7-7---------------------------------------------|
A|--7-7-7-7-7---5-5-5-5-5-5-5---5-5-5-5-5---------------------------------|
E|------------------------------3-3-3-3-3---------------------------------|

e|---------------------------------------------------------------------|
B|---------------------------------------------------------------------|
G|---------------------------------------------------------------------|
D|-----------x-x-x-x-------------------------x-x-x-x-------------------|
A|-5-5-5-5-5-x-x-x-x-5-5-5-5-5-5-5-5-5-5-5-5-x-x-x-x-5-5-5-5-5---------|
E|-3-3-3-3-3-x-x-x-x-3-3-3-3-3-3-3-3-3-3-3-3-x-x-x-x-3-3-3-3-3---------|

e|-----------------------------------------------------------------------|
B|-----------------------------------------------------------------------|
G|-----------------------------------------------------------------------|
D|----------------x-x-x-x--------------------------------------x-x-x-x---|
A|-10-10-10-10-10-x-x-x-x-10-10-10-10-10-10-10-10-10-10-10-10--x-x-x-x---|
E|-8--8--8--8--8--x-x-x-x-8--8--8--8--8--8--8--8--8--8--8--8---x-x-x-x---|

e|---------------------------------------------------------------------|
B|---------------------------------------------------------------------|
G|-------------------9-9-9-9-9-x-x-x-x-7-7-7-7-7-----------------------|
D|-------------------9-9-9-9-9-x-x-x-x-7-7-7-7-7--------------x-x-x-x--|
A|--10-10-10-10-10---7-7-7-7-7-x-x-x-x-5-5-5-5-5----5-5-5-5-5-x-x-x-x--|
E|--8--8--8--8--8-----------------------------------3-3-3-3-3-x-x-x-x--|

e|-------------------------|
B|-------------------------|
G|-------------------------|
D|-------------------------|
A|-5-5-5-5-5-5-5-----------|
E|-3-3-3-3-3-3-3-----------|


Ponte:
e|-------------------------------------------------------------------------|
B|-------------------------------------------------------------------------|
G|-------------------------------------------------------------------------|
D|-5-5-5-5-5-5-5-5-5-5-5--7-7-7-7-7-7-7-7-7-7-7-7--9-9-9-9-9-9-9-9-9-9-9-9-|
A|-3-3-3-3-3-3-3-3-3-3-3--5-5-5-5-5-5-5-5-5-5-5-5--7-7-7-7-7-7-7-7-7-7-7-7-|
E|-------------------------------------------------------------------------|

e|-------------------------------------------------------------------------|
B|-------------------------------------------------------------------------|
G|------------------------------------------------------Deixe a nota soar--|
D|--7-7-7-7-7-9-9-9-9-9--5-5-5-5-5-5-5-5-5-5-5-5----7~~~-------------------|
A|--5-5-5-5-5-7-7-7-7-7--3-3-3-3-3-3-3-3-3-3-3-3----5~~~-------------------|
E|-------------------------------------------------------------------------|


Verso (Solo):
e|---------------------------------------------|
B|---------------------------------------------|
G|--------------------7-4----------------------|
D|--7s9--7s5---5-7-9-------7-5------7s9--7s5\--|
A|---------------------------------------------|
E|---------------------------------------------|


Refrão (Base):
e|---------------------------------------------------------------------|
B|---------------------------------------------------------------------|
G|---------------------------------------------------------------------|
D|-----------x-x-x-x-------------------------x-x-x-x-------------------|
A|-5-5-5-5-5-x-x-x-x-5-5-5-5-5-5-5-5-5-5-5-5-x-x-x-x-5-5-5-5-5---------|
E|-3-3-3-3-3-x-x-x-x-3-3-3-3-3-3-3-3-3-3-3-3-x-x-x-x-3-3-3-3-3---------|

e|-----------------------------------------------------------------------|
B|-----------------------------------------------------------------------|
G|-----------------------------------------------------------------------|
D|----------------x-x-x-x--------------------------------------x-x-x-x---|
A|-10-10-10-10-10-x-x-x-x-10-10-10-10-10-10-10-10-10-10-10-10--x-x-x-x---|
E|-8--8--8--8--8--x-x-x-x-8--8--8--8--8--8--8--8--8--8--8--8---x-x-x-x---|

e|---------------------------------------------------------------------|
B|---------------------------------------------------------------------|
G|-------------------9-9-9-9-9-x-x-x-x-7-7-7-7-7-----------------------|
D|-------------------9-9-9-9-9-x-x-x-x-7-7-7-7-7--------------x-x-x-x--|
A|--10-10-10-10-10---7-7-7-7-7-x-x-x-x-5-5-5-5-5----5-5-5-5-5-x-x-x-x--|
E|--8--8--8--8--8-----------------------------------3-3-3-3-3-x-x-x-x--|

e|-------------------------|
B|-------------------------|
G|-------------------------|
D|-------------------------|
A|-5-5-5-5-5-5-5-----------|
E|-3-3-3-3-3-3-3-----------|


[Ponte de novo]

[Intro 1] (x2)


Final:
e|------------------------------------------------------------------|
B|------------------------------------------------------------------|
G|--------------------7-4------------------------7-4----------------|
D|--7s9--7s5---5-7-9-------7-5----7s9-7s5--5-7-9------5~~~~~~~~-----|
A|------------------------------------------------------------------|
E|------------------------------------------------------------------|

Clipes

Cifra Club Pro

Aproveite o Cifra Club com benefícios exclusivos e sem anúncios
7 dias grátis
Cifra Club Pro
Aproveite o Cifra Club com benefícios exclusivos e sem anúncios
7 dias grátis