Gsf Live

Mxpx

Tom: G
Tab:     Guitar
Version: Live
Tuning:  Standard (e,B,G,D,A,E)


#1t1#Intro
#1t2#e |--------------------------------------------------|
B |--------------------------------------------------|
G |--------------------------------------------------|
D |--------------------------------------------4-4-5-|  x2
A |-------5-2-5-7-7-7-10-7-5-3-3-3-3-3-3-5-5-5-------|
E |-3-3-3--------------------------------------------|#/1t2##/1t1#

#2t1#Verse  (You didn't have to be...)
#2t2#e |--------------------------------------------------|
B |--------------------------------------------------|
G |--------------------------------------------------|
D |-------------999999999999555555555555777777777777-|  x2
A |-555555555555777777777777333333333333555555555555-|
E |-333333333333-------------------------------------|#/2t2##/2t1#
Pm: ************************************************

#3t1#Pre Chorus  (Waste of time...)
#3t2#e |--------------------------------------------------|
B |--------------------------------------------------|
G |--------------------------------------------------|
D |-------444444555555777777------444444555555777777-|  x1
A |-555555222222333333555555555555222222333333555555-|
E |-333333------------------333333-------------------|#/3t2##/3t1#

#4t1#Chorus  (Girls ain't no good...)
#4t2#e |--------------------------------------------------|
B |--------------------------------------------------|
G |--------------------------------------------------|
D |-999999999999555555555555444444444444777777777777-|  x2
A |-777777777777333333333333222222222222555555555555-|
E |--------------------------------------------------|#/4t2##/4t1#

#5t1#Intro
#5t2#e |--------------------------------------------------|
B |--------------------------------------------------|
G |--------------------------------------------------|
D |--------------------------------------------4-4-5-|  x2
A |-------5-2-5-7-7-7-10-7-5-3-3-3-3-3-3-5-5-5-------|
E |-3-3-3--------------------------------------------|#/5t2##/5t1#

#6t1#Verse 2  (Always happens to my friends...)
#6t2#e |--------------------------------------------------|
B |--------------------------------------------------|
G |--------------------------------------------------|
D |-------------9-99--------5-5-5-------7-77---------|  x2
A |-5-55--------7-77--------3-33--------5-55---------|
E |-3-33---------------------------------------------|#/6t2##/6t1#

#7t1#Pre Chorus  (Do without...)
#7t2#e |--------------------------------------------------|
B |--------------------------------------------------|
G |--------------------------------------------------|
D |-------444444555555777777------444444555555777777-|  x1
A |-555555222222333333555555555555222222333333555555-|
E |-333333------------------333333-------------------|#/7t2##/7t1#

#8t1#Chorus  (Girls ain't no good...)
#8t2#e |--------------------------------------------------|
B |--------------------------------------------------|
G |--------------------------------------------------|
D |-999999999999555555555555444444444444777777777777-|  x2
A |-777777777777333333333333222222222222555555555555-|
E |--------------------------------------------------|#/8t2##/8t1#

#9t1#Outro
#9t2#e |--------------------------------------------------|
B |--------------------------------------------------|
G |--------------------------------------------------|
D |--------------------------------------------4-4-5-|  x2
A |-------5-2-5-7-7-7-10-7-5-3-3-3-3-3-3-5-5-5-------|
E |-3-3-3--------------------------------------------|#/9t2##/9t1#

#10t1#End Note
#10t2#e |---|
B |---|
G |---|
D |---|
A |---|
E |-3-|#/10t2##/10t1#
Composição: Adam Clayton / Ben Raleigh / Bobby Dall / Bret Michaels / C.C. DeVille / Charlotte Caffey / Dave Alvin / David Mook / David Shulthise / Dean Sabatino / Dr. David Evans / Ellen Shipley / Frederick Mercury / Gérard Rinaldi / Jake Long / Jane Wiedlin / Joe Strummer / Joey Ramone / Joseph Gerano / Kohmoto Hiroto / Laurence Mullen / Marty Wilde / Mick Jones / MxPx / Paul David Hewson / Peter Schilling / Rick Nowels / Ricki Wilde / Rikki Rockett / Steve Soto / Tom Petty / Tony Lombardo / ValentineColaboração e revisão: