busca

I Can Be Friends With You

Mxpx

Album: Never say Dinosaur
tabbed by: John Gula 



Intro:  play 3x
-------------------------
-------------------------
--55--00--55--00----0---
-------------------3-----
End intro with:
-------------------------
-------------------------
-----0--5----------------
--3----------------------


Chorus:  
-------------------------
-------------------------         
---55--------------------
--------3333-------------


-----------------------------
-----------------------------
-----0--5-------0--5--------
--3--------3333------333----


(repeat the above two, then go into the verse)


Verse:


----------------------------
----------------------------          
---5555--------0000--5555-
---------3333--------------




mail me with punk rawk bass tabs! visit my homepage at 
Http://*


    John   *WarpSpider*

Clipes