I'm Ok, You're Ok

Mxpx

Bb
234
X13331
C
123
X32010
Dm
123
XX0231
F
234
133211
Tom: G
#1t1#F       C       Bb      Dm  
#1t2#|--------------------------1-| 
|--------------------------3-| 
|----------5-------3-------2-| 
|--3-------5-------3-------0-| 
|--3-------3-------1---------| 
|--1-------------------------| #/1t2##/1t1#
 
Intro:   
 
#2t1##2t2#|-------------------------| 
|-------------------------| 
|x-x-5-x-5-2-3-3-3-3-3-3-3| 
|x-x-5-x-5-2-3-3-3-3-3-3-3| 4 x's 
|x-x-3-x-3-0-1-0-1-0-1-0-1| 
|-------------------------| #/2t2##/2t1#
 
Riff: 
 
#3t1##3t2#|------------------------------------------| 
|------------------------------------------| 
|--3xxxxxx3-3-3xxxxx3-3-3xxxxx3-3-3-3-5-5-5| 
|--3xxxxxx3-3-3xxxxx3-3-3xxxxx3-3-3-3-5-5-5| 
|--1xxxxxx0-1-1xxxxx0-1-1xxxxx0-1-1-1-3-3-3| 
|------------------------------------------|#/3t2##/3t1#

F                  C                     Riff        
What's going on tonight? Is everything alright? 
F                       C  
I hope that nothing's wrong. I haven't seen you 
       Riff   
in so long. 
 
Refrão 
 
F   
I'm away, you're here to stay and I'm away and  
        C 
you're ok 
       Bb                          
You're here to stay and I'm away, you're here to 
               C 
stay and I'm ok 
 
Verso 2 
 
F                     C                  Riff   
What exactly do you do, when I'm not with you? 
F                   C                          Riff   
What exactly do you say, all the time that I'm away? 
 
Refrão 
 
F   
I'm away, you're here to stay and I'm away and  
        C 
you're ok 
       Bb                          
You're here to stay and I'm away, you're here to 
               C 
stay and I'm ok 
F   
I'm away, you're here to stay and I'm away and  
        C 
you're ok 
       Bb                          
You're here to stay and I'm away, you're here to 
               C 
stay and I'm ok 

Riff 
 
#4t1# Dm                  Bb C                      Bb C 
#4t2#|-1-------1-------1------||-1-------1---1--------------------| 
|-3-----3-------3--------||-3-----3-------3------------------| 
|-2---2--------------3--5||-2---2-----------2--3--5-5-5-5xxxx| 
|-0------------------3--5||-0------------------3--5-5-5-5xxxx| 
|-------------4------1--3||--------------------1--3-3-3-3xxxx| 
|------------------------||----------------------------------|#/4t2##/4t1#

Refrão 2x
Composição: Gérard RinaldiColaboração e revisão: Hugo Dantas