busca

Let It Happen

Mxpx

Tom: F#
Lead Part:
e------------------------------I
b------------------------------I
g------------------------------I
d---------9-11-9-9-8-8-h9-I
a-----9-9---------------------I
e-7-7-------------------------I

B
i want someone to love
F#
a girl that when i think of
E                               C#     F#
will put a smile on my face
B
i want to hold her hand
F#
want her to understand
E                                   C#    F#
there's got to be a better place
              E
than this world cause this
                                 C#
is the best time of our lives
                  F#                       E
Should I be thinking about that now
                                  C#
She turns world around
  F#
I let it happen everytime

(play lead part for second verse)

i want a lot of things

somethings always seem to bring

all the pain back in my mind

which way to go

answers to questions I don't know

better things that we can find
                   E
than this world
                                 C#
this is the best time of our lives
                  F#                       E
Should I be thinking about that now
                                  C#
She turns world around
  F#
I let it happen everytime

Bridge:
e-------------------I
b-------------------I
g----------9-8------I
d----------------9--I
a-------------------I
e-9-11-7------------I

Clipes