busca

Let It Happen

Mxpx

Let it Happen
BassTab

Legend
>-multiple times played

Sorry but the rhythm is not listed. Just listen to the song. I gurantee u that
these tabs are correct. If you find any problems e-mail me at *
(which u won't). Later
P.* FOREVER!!!!=D

Intro 2x
G|--------------------------------------------------------------------------------
D|----9>-8-------------11>-----------------9>---------------------4>-----2>-------
A|------------9>--13>---------13-----7>----------11>-----4>--------------------4>-
E|--------------------------------------------------------------------------------

Verse 2x
G|-----------------------------------
D|---9>------------------------------
A|---------9>----7>---4>-/-9>--------
E|-----------------------------------

Chorus 2x
G|------------------
D|------------------
A|----7>---4>-/-9>--
E|------------------

Interlude 2x
G|-------------------------------------------------------------------------------
D|----9>---------------11>-----------------9>---------------------4>-----2>------
A|-----------9>--13>---------13-----7>----------11>-----4>--------------------4>-
E|-------------------------------------------------------------------------------

Chorus 2x
G|------------------
D|------------------
A|----7>---4>-/-9>--
E|------------------

Interlude 1x
G|-------------------------------------------------------------------------------
D|----9>---------------11>-----------------9>---------------------4>-----2>------
A|-----------9>--13>---------13-----7>----------11>-----4>--------------------4>-
E|-------------------------------------------------------------------------------



Bass Solo 2x
G|--8—8—8----8----8---8---8------8------8------------------------------------------------------
D|9—9—9—99---6---6---6----66----66-------9----9-----9-------9-----9-------11------11-----------
A|-------------------------------------------------7---7----77----77-----77-----99------99---9-
E|---------------------------------------------------------------------------------------------

G|---------6----7—9--
D|-11----------------
A|-----99----9-------
E|-------------------

Interlude 2x
G|-------------------------------------------------------------------------------
D|----9>---------------11>-----------------9>---------------------4>-----2>------
A|-----------9>--13>---------13-----7>----------11>-----4>--------------------4>-
E|-------------------------------------------------------------------------------

Verse 2x
G|-----------------------------------
D|---9>------------------------------
A|---------9>----7>---4>-/-9>--------
E|-----------------------------------

Chorus 2x
G|------------------
D|------------------
A|----7>---4>-/-9>--
E|------------------

Outro 2x
G|---------------—8—8----8----8-------8------------------------------------------
D|-9(let ring)---6---6---6----66----66-----------------------11------11----------
A|----------------------------------------------7(let ring)--99------99------9---
E|-------------------------------------------------------------------------------

----------6-----7----9—11—
11------------------------
-----99-----9-------------
--------------------------

Clipes

Cifra Club Pro

Aproveite o Cifra Club com benefícios exclusivos e sem anúncios
Cifra Club Pro
Aproveite o Cifra Club com benefícios exclusivos e sem anúncios