My Life Story

Mxpx

A
123
X02220
C#
234
X46664
D
123
XX0232
E
123
022100
F#
234
244322
Tom: G
#1t1#Intro:A D 4x 
#1t2#|---------------------------------------------------------|
|---------------------------------------------------------|
|---------------------------------------------------------|
|-9-11-11-7-7---------------------------------------------| 4x
|-0-0--0--5-5---------------------------------------------|
|---------------------------------------------------------|
 |--4X--| #/1t2##/1t1#

#2t1#Versos:A D D A 2x
#2t2#|---------------------------------------------------------|
|---------------------------------------------------------|
|----7-7---7-7--------------------------------------------|
|----5-5---5-5--------------------------------------------| 
|-7..---7..-----------------------------------------------|
|-5..---5..-----------------------------------------------|#/2t2##/2t1#

I was on my way
To be with you today

#3t1#pré refrão:A G# F# E D E 
#3t2#|---------------------------------------------------------|
|---------------------------------------------------------|
|------------------------7-7-7-7-7-7-7--------------------|
|------------------------5-5-5-5-5-5-5--------------------|
|-7-7-7-6-6-6-4-4-4-2-2-2-------------2-2-----------------|
|-5-5-5-4-4-4-2-2-2-0-0-0-------------0-0-----------------|#/3t2##/3t1#
 Pm..   ...   ...   ...

Well you know it's true
Because I wouldn't lie to you

#4t1#verso:A D D A D D
#4t2#|---------------------------------------------------------|
|---------------------------------------------------------|
|----7-7---7-7--------------------------------------------|
|----5-5---5-5--------------------------------------------| 2x
|-7..---7..-----------------------------------------------|
|-5..---5..-----------------------------------------------|#/4t2##/4t1#

First my car broke down
So then I had to hitch a ride

#5t1#pré refrão:A G# F# E D E 
#5t2#|---------------------------------------------------------|
|---------------------------------------------------------|
|------------------------7-7-7-7-7-7-7--------------------|
|------------------------5-5-5-5-5-5-5--------------------|
|-7-7-7-6-6-6-4-4-4-2-2-2-------------2-2-----------------|
|-5-5-5-4-4-4-2-2-2-0-0-0-------------0-0-----------------|#/5t2##/5t1#
 Pm..   ...   ...   ...

I was almost there
When the motor died

#6t1#Refrão:A D E 
#6t2#|---------------------------------------------------------|
|---------------------------------------------------------|
|----------------------7-7--------------------------------|
|----------------------5-5--------------------------------|2x
|-7-7-7-7-7-7-7-7-7-7-7---2-2-----------------------------|
|-5-5-5-5-5-5-5-5-5-5-5---0-0-----------------------------|#/6t2##/6t1#

Don't hate me, forever
I'm better late then never
I failed you,
I'm sorry
That's simply my life story

intro 2x

#7t1#Versos:A D D A 2x
#7t2#|---------------------------------------------------------|
|---------------------------------------------------------|
|----7-7---7-7--------------------------------------------|
|----5-5---5-5--------------------------------------------| 
|-7..---7..-----------------------------------------------|
|-5..---5..-----------------------------------------------|#/7t2##/7t1#

I know it's much to late
To take you on a date

#8t1#pré refrão:A G# F# E D E 
#8t2#|---------------------------------------------------------|
|---------------------------------------------------------|
|------------------------7-7-7-7-7-7-7--------------------|
|------------------------5-5-5-5-5-5-5--------------------|
|-7-7-7-6-6-6-4-4-4-2-2-2-------------2-2-----------------|
|-5-5-5-4-4-4-2-2-2-0-0-0-------------0-0-----------------|#/8t2##/8t1#
 Pm..   ...   ...   ...

I know that it's no use,
But this is my excuse:

#9t1#Versos:A D D A 2x
#9t2#|---------------------------------------------------------|
|---------------------------------------------------------|
|----7-7---7-7--------------------------------------------|
|----5-5---5-5--------------------------------------------| 
|-7..---7..-----------------------------------------------|
|-5..---5..-----------------------------------------------|#/9t2##/9t1#

I was in a plane
And it was falling from the sky

#10t1#pré refrão:A G# F# E D E 
#10t2#|---------------------------------------------------------|
|---------------------------------------------------------|
|------------------------7-7-7-7-7-7-7--------------------|
|------------------------5-5-5-5-5-5-5--------------------|
|-7-7-7-6-6-6-4-4-4-2-2-2-------------2-2-----------------|
|-5-5-5-4-4-4-2-2-2-0-0-0-------------0-0-----------------|#/10t2##/10t1#
 Pm..   ...   ...   ...

I knew I had to survive
So i could say goodbye

(Repete Refrão)

#11t1#ponte:A D E A E 
#11t2#|---------------------------------------------------------|
|---------------------------------------------------------|
|---------------------------------------------------------|
|---7-7-----2---------------------------------------------|4x
|-7-5-5-2-2-0-2-------------------------------------------|
|-5-----0-0---0-------------------------------------------|#/11t2##/11t1#

#12t1#ponte2:A C# F# E 
#12t2#|---------------------------------------------------------|
|---------------------------------------------------------|
|---------------------------------------------------------|
|---------6-6-6-6-----------------------------------------|
|-7-7-7-7-4-4-4-4-4-4-4-4-2-2-2-2-------------------------|
|-5-5-5-5---------2-2-2-2-0-0-0-0-------------------------|#/12t2##/12t1#
 Pm..............................

You change your mind
Like you change the time
That I was gonna call you,
Or say I was about to

#13t1#ponte2:A C# F# E    D E 
#13t2#|---------------------------------------------------------|
|---------------------------------------------------------|
|---------------------------------------------------------|
|---------6......--------------7-7--------------------------|
|-7......-4......-4.....-2.....5-5-2-2----------------------|
|-5......---------2.....-0.....----0-0--------------------|#/13t2##/13t1#

You change your mind
Like you change the time
I said that I would be there,
But then I didn't have a thing to wear

(Repete o refrão 2x)
My life story...My life story...My life story...My
life story... 
Composição: Colaboração e revisão: Vinicius Terlizzi