busca

My Life Story

Mxpx

Tom: A
Intro:A D 4x 
|---------------------------------------------------------|
|---------------------------------------------------------|
|---------------------------------------------------------|
|-9-11-11-7-7---------------------------------------------| 4x
|-0-0--0--5-5---------------------------------------------|
|---------------------------------------------------------|
 |--4X--| 

Versos:A D D A 2x
|---------------------------------------------------------|
|---------------------------------------------------------|
|----7-7---7-7--------------------------------------------|
|----5-5---5-5--------------------------------------------| 
|-7..---7..-----------------------------------------------|
|-5..---5..-----------------------------------------------|

I was on my way
To be with you today

pré refrão:A G# F# E D E 
|---------------------------------------------------------|
|---------------------------------------------------------|
|------------------------7-7-7-7-7-7-7--------------------|
|------------------------5-5-5-5-5-5-5--------------------|
|-7-7-7-6-6-6-4-4-4-2-2-2-------------2-2-----------------|
|-5-5-5-4-4-4-2-2-2-0-0-0-------------0-0-----------------|
 Pm..   ...   ...   ...

Well you know it's true
Because I wouldn't lie to you

verso:A D D A D D
|---------------------------------------------------------|
|---------------------------------------------------------|
|----7-7---7-7--------------------------------------------|
|----5-5---5-5--------------------------------------------| 2x
|-7..---7..-----------------------------------------------|
|-5..---5..-----------------------------------------------|

First my car broke down
So then I had to hitch a ride

pré refrão:A G# F# E D E 
|---------------------------------------------------------|
|---------------------------------------------------------|
|------------------------7-7-7-7-7-7-7--------------------|
|------------------------5-5-5-5-5-5-5--------------------|
|-7-7-7-6-6-6-4-4-4-2-2-2-------------2-2-----------------|
|-5-5-5-4-4-4-2-2-2-0-0-0-------------0-0-----------------|
 Pm..   ...   ...   ...

I was almost there
When the motor died

Refrão:A D E 
|---------------------------------------------------------|
|---------------------------------------------------------|
|----------------------7-7--------------------------------|
|----------------------5-5--------------------------------|2x
|-7-7-7-7-7-7-7-7-7-7-7---2-2-----------------------------|
|-5-5-5-5-5-5-5-5-5-5-5---0-0-----------------------------|

Don't hate me, forever
I'm better late then never
I failed you,
I'm sorry
That's simply my life story

intro 2x

Versos:A D D A 2x
|---------------------------------------------------------|
|---------------------------------------------------------|
|----7-7---7-7--------------------------------------------|
|----5-5---5-5--------------------------------------------| 
|-7..---7..-----------------------------------------------|
|-5..---5..-----------------------------------------------|

I know it's much to late
To take you on a date

pré refrão:A G# F# E D E 
|---------------------------------------------------------|
|---------------------------------------------------------|
|------------------------7-7-7-7-7-7-7--------------------|
|------------------------5-5-5-5-5-5-5--------------------|
|-7-7-7-6-6-6-4-4-4-2-2-2-------------2-2-----------------|
|-5-5-5-4-4-4-2-2-2-0-0-0-------------0-0-----------------|
 Pm..   ...   ...   ...

I know that it's no use,
But this is my excuse:

Versos:A D D A 2x
|---------------------------------------------------------|
|---------------------------------------------------------|
|----7-7---7-7--------------------------------------------|
|----5-5---5-5--------------------------------------------| 
|-7..---7..-----------------------------------------------|
|-5..---5..-----------------------------------------------|

I was in a plane
And it was falling from the sky

pré refrão:A G# F# E D E 
|---------------------------------------------------------|
|---------------------------------------------------------|
|------------------------7-7-7-7-7-7-7--------------------|
|------------------------5-5-5-5-5-5-5--------------------|
|-7-7-7-6-6-6-4-4-4-2-2-2-------------2-2-----------------|
|-5-5-5-4-4-4-2-2-2-0-0-0-------------0-0-----------------|
 Pm..   ...   ...   ...

I knew I had to survive
So i could say goodbye

(Repete Refrão)

ponte:A D E A E 
|---------------------------------------------------------|
|---------------------------------------------------------|
|---------------------------------------------------------|
|---7-7-----2---------------------------------------------|4x
|-7-5-5-2-2-0-2-------------------------------------------|
|-5-----0-0---0-------------------------------------------|

ponte2:A C# F# E 
|---------------------------------------------------------|
|---------------------------------------------------------|
|---------------------------------------------------------|
|---------6-6-6-6-----------------------------------------|
|-7-7-7-7-4-4-4-4-4-4-4-4-2-2-2-2-------------------------|
|-5-5-5-5---------2-2-2-2-0-0-0-0-------------------------|
 Pm..............................

You change your mind
Like you change the time
That I was gonna call you,
Or say I was about to

ponte2:A C# F# E    D E 
|---------------------------------------------------------|
|---------------------------------------------------------|
|---------------------------------------------------------|
|---------6......--------------7-7--------------------------|
|-7......-4......-4.....-2.....5-5-2-2----------------------|
|-5......---------2.....-0.....----0-0--------------------|

You change your mind
Like you change the time
I said that I would be there,
But then I didn't have a thing to wear

(Repete o refrão 2x)
My life story...My life story...My life story...My
life story... 

Clipes

Cifra Club Pro

Aproveite o Cifra Club com benefícios exclusivos e sem anúncios
7 dias grátis
Cifra Club Pro
Aproveite o Cifra Club com benefícios exclusivos e sem anúncios
7 dias grátis