busca

One Step Closer To Life

Mxpx

Tabbed By: Dave Parisi

G|------------------------------------------------------------
D|------------------------------------------------------------
A|--------------6-6-6-6-6-6--2-2-2-2-2-2---3--2--1--3--2--4---
E|---2-2-2-2-2-2----------------------------------------------

G|------------------------------------------------------------
D|------------------------------------------------------------
A|--------------6-6-6-6-6-6--2-2-2-3-3-3---4-4-4-4-4-4---
E|---2-2-2-2-2-2----------------------------------------------


Verse

G|--------------------------------------------------------------------
D|--------------------------------------------------------------------
A|----------------------------------6-6-6---6-6-6---6-6-6---6-6-6-----
E|---2-2-2---2-2-2---2-2-2---2-2-2------------------------------------

G|--------------------------------------------------------------------
D|--------------------------------------------------------------------
A|---2-2-2---2-2-2---2-2-2---2-2-2--4-4-4---4-4-4---4-4-4---4-4-4-----
E|--------------------------------------------------------------------

G|--------------------------------------------------------------------
D|--------------------------------------------------------------------
A|---4-3-2-4-3-2-3-2-1-3-2-4------------------------------------------
E|--------------------------------------------------------------------


Chorus

G|-----------------------------------------------------------------
D|-----------------------------------------------------------------
A|-------------6-6-6-6-6--2-2-2-2-2--4-4-4-4-4---------------------
E|---2-2-2-2-2-----------------------------------------------------

G|-----------------------------------------------------------------
D|-----------------------------------------------------------------
A|-------------6-6-6-6-6--2-2-2-2-2--4-4-4-4-4---------------------
E|---2-2-2-2-2-----------------------------------------------------

Bridge

G|-----------------------------------------------------------------
D|-----------------------------------------------------------------
A|---2----4-----6--4--2--4-----2----4-----6--4--2--4---------------
E|-----------------------------------------------------------------

G|-----------------------------------------------------------------
D|-----------------------------------------------------------------
A|----44445555-77777----88--88---88----88888-----------------------
E|-----------------------------------------------------------------


Clipes

Cifra Club Pro

Aproveite o Cifra Club com benefícios exclusivos e sem anúncios
Cifra Club Pro
Aproveite o Cifra Club com benefícios exclusivos e sem anúncios