busca

Play It Loud

Mxpx

Tom: F
         |            x3|       |                            |
E|-------|--------------|-------|----------------------------|
B|-------|--------------|-------|----------------------------|
G|----8--|----------8-7-|----8--|----------------------------|
D|-6--8--|-8-8-8-88-8-7-|-6--8--|-8---------------------8888-|
A|-6--6--|-8-8-8-88-6-5-|-6--6--|-8---------------------8888-|
E|-4-----|-6-6-6-66-----|-4-----|-6-6666666666666666666-6666-|

                        |            x2|                            |
E|----------------------|--------------|----------------------------|
B|----------------------|--------------|----------------------------|
G|-1010101010-8-8-8-8-8-|----------8-7-|----------------------------|
D|-1010101010-8-8-8-8-8-|-8-8-8-88-8-7-|-8---------------------8888-|
A|-8-8-8-8-8--6-6-6-6-6-|-8-8-8-88-6-5-|-8---------------------8888-|
E|-8-8-8-8-8--6-6-6-6-6-|-6-6-6-66-----|-6-6666666666666666666-6666-|

                        |            x2|
E|----------------------|--------------|
B|----------------------|--------------|
G|-1010101010-8-8-8-8-8-|----------8-7-|
D|-1010101010-8-8-8-8-8-|-8-8-8-88-8-7-|
A--8-8-8-8-8--6-6-6-6-6-|-8-8-8-88-6-5-|
E|-8-8-8-8-8--6-6-6-6-6-|-6-6-6-66-----|

E|----------------------|--------------|-------|
B|----------------------|--------------|-------|
G|-1010101010-8-8-8-8-8-|----------8-7-|----8--|
D|-1010101010-8-8-8-8-8-|-8-8-8-88-8-7-|-6--8--|
A--8-8-8-8-8--6-6-6-6-6-|-8-8-8-88-6-5-|-6--6--|
E|-8-8-8-8-8--6-6-6-6-6-|-6-6-6-66-----|-4-----|

E|---------------------------------------------------|
B|---------------------------------------------------|
G|-----------------------------------8-8-8-8-8-8-8-8-|
D|-8-8-8-8-8-8-8-8--6-6-6-6-6-6-6-6--8-8-8-8-8-8-8-8-|
A--8-8-8-8-8-8-8-8--6-6-6-6-6-6-6-6--6-6-6-6-6-6-6-6-|
E|-6-6-6-6-6-6-6-6--4-4-4-4-4-4-4-4------------------|

E|---------------------------------------------------|
B|-----5---------------------------------------------|
G|-8-7-----------------------------------------------|
D|---------------------------------------------------|
A|---------------------------------------------------|
E|---------------------------------------------------|

E|--------------|-------|----------------------------|
B|--------------|-------|----------------------------|
G|----------8-7-|----8--|----------------------------|
D|-8-8-8-88-8-7-|-6--8--|-8---------------------8888-|
A|-8-8-8-88-6-5-|-6--6--|-8---------------------8888-|
E|-6-6-6-66-----|-4-----|-6-6666666666666666666-6666-|

                        |            x2|
E|----------------------|--------------|
B|----------------------|--------------|
G|-1010101010-8-8-8-8-8-|----------8-7-|
D|-1010101010-8-8-8-8-8-|-8-8-8-88-8-7-|
A--8-8-8-8-8--6-6-6-6-6-|-8-8-8-88-6-5-|
E|-8-8-8-8-8--6-6-6-6-6-|-6-6-6-66-----|

                              |                      |            x2|
E|----------------------------|----------------------|--------------|
B|----------------------------|----------------------|--------------|
G|----------------------------|-1010101010-8-8-8-8-8-|----------8-7-|
D|-8---------------------8888-|-1010101010-8-8-8-8-8-|-8-8-8-88-8-7-|
A|-8---------------------8888-|-8-8-8-8-8--6-6-6-6-6-|-8-8-8-88-6-5-|
E|-6-6666666666666666666-6666-|-8-8-8-8-8--6-6-6-6-6-|-6-6-6-66-----|

E|----------------------|--------------|-------|
B|----------------------|--------------|-------|
G|-1010101010-8-8-8-8-8-|----------8-7-|----8--|
D|-1010101010-8-8-8-8-8-|-8-8-8-88-8-7-|-6--8--|
A--8-8-8-8-8--6-6-6-6-6-|-8-8-8-88-6-5-|-6--6--|
E|-8-8-8-8-8--6-6-6-6-6-|-6-6-6-66-----|-4-----|

E|---------------------------------------------------|
B|---------------------------------------------------|
G|-----------------------------------8-8-8-8-8-8-8-8-|
D|-8-8-8-8-8-8-8-8--6-6-6-6-6-6-6-6--8-8-8-8-8-8-8-8-|
A--8-8-8-8-8-8-8-8--6-6-6-6-6-6-6-6--6-6-6-6-6-6-6-6-|
E|-6-6-6-6-6-6-6-6--4-4-4-4-4-4-4-4------------------|

E|---------------------------------------------------|
B|-----5---------------------------------------------|
G|-8-7-----------------------------------------------|
D|---------------------------------------------------|
A|---------------------------------------------------|
E|---------------------------------------------------|

E|--------------|-------|
B|--------------|-------|
G|----------8-7-|----8--|
D|-8-8-8-88-8-7-|-6--8--|
A--8-8-8-88-6-5-|-6--6--|
E|-6-6-6-66-----|-4-----|

E|---------------------------------------------------|----|
B|---------------------------------------------------|----|
G|-----------------------------------8-8-8-8-8-8-8-8-|----|
D|-8-8-8-8-8-8-8-8--6-6-6-6-6-6-6-6--8-8-8-8-8-8-8-8-|-8:-|
A--8-8-8-8-8-8-8-8--6-6-6-6-6-6-6-6--6-6-6-6-6-6-6-6-|-8:-|
E|-6-6-6-6-6-6-6-6--4-4-4-4-4-4-4-4------------------|-6:-|

E|---------------------------------------------------|
B|-----5---------------------------------------------|
G|-8-7-----------------------------------------------|
D|---------------------------------------------------|
A|---------------------------------------------------|
E|---------------------------------------------------|

           x2|     x3|    |
E|-----------|-------|----|
B|-----------|-------|----|
G|---8-7-----|-8-7---|-8:-|
D|-8-----8-5-|-----8-|----|
A|-----------|-------|----|
E|-----------|-------|----|

E|----------------------------|
B|----------------------------|
G|----8----------8:---------8-|
D|-6--8--8:--6:--8:--8:--6--8-|
A--6--6--8:--6:--6:--8:--6--6-|
E|-4-----6:--4:------6:--4----|

E|---------------------------------------------------|
B|---------------------------------------------------|
G|-----------------------------------8-8-8-8-8-8-8-8-|
D|-8-8-8-8-8-8-8-8--6-6-6-6-6-6-6-6--8-8-8-8-8-8-8-8-|
A--8-8-8-8-8-8-8-8--6-6-6-6-6-6-6-6--6-6-6-6-6-6-6-6-|
E|-6-6-6-6-6-6-6-6--4-4-4-4-4-4-4-4------------------|

E|---------------------------------------------------|
B|-----5---------------------------------------------|
G|-8-7-----------------------------------------------|
D|---------------------------------------------------|
A|---------------------------------------------------|
E|---------------------------------------------------|

                     x3|
E|---------------------|
B|---------------------|
G|----------8-7-----8--|
D|-8-8-8-88-8-7--6--8--|
A--8-8-8-88-6-5--6--6--|
E|-6-6-6-66------4-----|

              x2|      |
E|--------------|------|
B|--------------|------|
G|----------8-7-|------|
D|-8-8-8-88-8-7-|-8\---|
A|-8-8-8-88-6-5-|-8\---|
E|-6-6-6-66-----|-6\---|

Clipes

Cifra Club Pro

Aproveite o Cifra Club com benefícios exclusivos e sem anúncios
Cifra Club Pro
Aproveite o Cifra Club com benefícios exclusivos e sem anúncios