Popeye the Sailorman

Mxpx

Tom: G
#1t1##1t2#E|--------------------------------------------------------------------------------|
B|--------------------------------------------------------------------------------|
G|--------------------2---2-5-2-0------0-2---2-5-4--2-0-2-0-------0-0-0-----------|
D|--5-5-5-3-2-5-----5---3------------------3----------------2---2-------3-0-------|
A|------------------------------------------------------------3--------------3----|
E|--------------------------------------------------------------------------------|#/1t2##/1t1#

#2t1#Both Guitars. (00:38)
#2t2#E|---------------------------------------|--------------------
B|---------------------------------------|--palm-muted--------
G|---5-5-5-5-5-5-5-5-5-5-5-5-5-5-5-5-5-5-|--------------------
D|---x-x-x-x-x-x-x-x-x-x-x-x-x-x-x-x-x-x-|--5-xxxxxxxxxxx-----
A|---3-3-3-3-3-3-3-3-3-3-3-3-3-3-3-3-3-3-|--5-xxxxxxxxxxx-----
E|---------------------------------------|--3-xxxxxxxxxxx-----#/2t2##/2t1#


#3t1#Verse (00:54)
#3t2#E|--------------------------------------------------------------------------------------------------------------|2x
B|--------------------------------------------------------------------------------------------------------------|
G|-5-5-5-5-5-5-5-5-5-5-----------------5-5-5-5-5-5-5-5-5---------------5-5-5-5-5-5-5-5---------------5-5-5-5-5--|
D|-5-5-5-5-5-5-5-5-5-5--3-3-3-3-3-3-3--5-5-5-5-5-5-5-5-5--3-3-3-3-3-3--5-5-5-5-5-5-5-5--5-5-5-5-5-5--5-5-5-5-5--|
A|-3-3-3-3-3-3-3-3-3-3--3-3-3-3-3-3-3--3-3-3-3-3-3-3-3-3--3-3-3-3-3-3--3-3-3-3-3-3-3-3--5-5-5-5-5-5--3-3-3-3-3--|
E|----------------------1-1-1-1-1-1-1---------------------1-1-1-1-1-1-------------------3-3-3-3-3-3-------------|#/3t2##/3t1#
 "I'm Popeye the sailorman..."


#4t1#(01:12)
#4t2#E|------------------------------------------------------------------------------|2X
B|------------------------------------------------------------------------------|
G|-10-10-10-10-10-10-----------------------12-12-12-12-12-----------------------|
D|-10-10-10-10-10-10---10-10-10-10-10-10---12-12-12-12-12---10-10-10-10-10-10---|
A|-8--8--8--8--8--8----10-10-10-10-10-10---10-10-10-10-10---10-10-10-10-10-10---|
E|---------------------8--8--8--8--8--8---------------------8--8--8--8--8--8----|#/4t2##/4t1#
 "I'm one tough gazookus..."


#5t1#(01:21)
#5t2#E|------------------------------------------------------------------------------------------------
B|------------------------------------------------------------------------------------------------
G|-10-10-10-10-10-10-10-10------------------------------------------------------------------------
D|-10-10-10-10-10-10-10-10--10-10-10-10-10-10-10-10-10-10-10-10-10-10-10-10-10--------------------
A|-8--8--8--8--8--8--8--8---10-10-10-10-10-10-10-10-10-10-10-10-10-10-10-10-10--------------------
E|--------------------------8--8--8--8--8--8--8--8--8--8--8--8--8--8--8--8--8---------------------...#/5t2##/5t1#
 "If anyone dasses to risk ..."


#6t1#..continues...
#6t2#E|-------------------------------------------------------------------------------------------------------|
B|-------------------------------------------------------------------------------------------------------|
G|-10-10-10-10-10-10-10-10-10-10-10-10-10-10-10----------------------12-12-12-12-12----------------------|
D|-10-10-10-10-10-10-10-10-10-10-10-10-10-10-10--10-10-10-10-10-10---12-12-12-12-12---10-10-10-10--------|
A|-8--8--8--8--8--8--8--8--8--8--8--8--8--8--8---10-10-10-10-10-10---10-10-10-10-10---10-10-10-10--------|
E|-----------------------------------------------8--8--8--8--8--8---------------------8--8--8--8---------|#/6t2##/6t1#



Chorus (01:30)

 - PLAY IT LIKE THE VERSE -


Solo  (01:39)

- 1 s t   G u i t a r. -

#7t1##7t2#E|------------------------------------------------------------------------------------
B|------------------------------------------------------------------------------------
G|--5-5-5-5-5-5-5-5-------------------5-5-5-5-5-5-5---------------------------5-5-5---
D|--5-5-5-5-5-5-5-5--5-5-5-5-5-5-5-5--5-5-5-5-5-5-5--3-3-3-3-3--5-5-5-5-5-5---5-5-5---
A|--3-3-3-3-3-3-3-3--5-5-5-5-5-5-5-5--3-3-3-3-3-3-3--3-3-3-3-3--5-5-5-5-5-5---3-3-3---
E|-------------------3-3-3-3-3-3-3-3-----------------1-1-1-1-1--3-3-3-3-3-3-----------#/7t2##/7t1#

then...


#8t1##8t2#E|-----------------------------------------------------------------------------------|
B|-----------------------------------------------------------------------------------|
G|--5---5---5---5------------------------5---5-----------------------------5--5------|
D|--5---5---5---5-----5---5---5---5------5---5------3---3-------5----5-----5--5------|
A|--3---3---3---3-----5---5---5---5------3---3------3---3-------5----5-----3--3------|
E|--------------------3---3---3---3-----------------1---1-------3----3---------------|#/8t2##/8t1#


- 2 n d   G u i t a r . -


#9t1##9t2#E|--------------------------------------------------------------------------------------------------------------------|
B|--------------------------------------------------------------------------------------------------------------------|
G|-5-4-5--------------5-4-5----7-6-7-----7-5-4---------------4-5-4----------------------------------------------------|
D|------------5-3-2-5--------------------------7-5-4-5--5-7--------7-5-7-5-3-2-3-2-0---0---------------0-3-2-0-2------|
A|-------3-3-------------------------5-5---------------------------------------------3---3-2-0---0-2-3-----------3-3--|
E|---------------------------------------------------------------------------------------------3----------------------|#/9t2##/9t1#
  (Have to do this pretty fast and 2X)


Then both guitars
(01:56)

#10t1##10t2#E|----------------------|
B|----palm-mute|---------|
G|----------------------|
D|--5-xxxxxxxxxxxxxxxx--|
A|--5-xxxxxxxxxxxxxxxx--|
E|--3-xxxxxxxxxxxxxxxx--|#/10t2##/10t1#


After that, G U I T A R   1  plays:
(02:01)

#11t1##11t2#E|------------------------------------------------------------------------------|
B|------------------------------------------------------------------------------| 2X
G|-10-10-10-10-10-10-----------------------12-12-12-12-12-----------------------|
D|-10-10-10-10-10-10---10-10-10-10-10-10---12-12-12-12-12---10-10-10-10-10-10---|
A|-8--8--8--8--8--8----10-10-10-10-10-10---10-10-10-10-10---10-10-10-10-10-10---|
E|---------------------8--8--8--8--8--8---------------------8--8--8--8--8--8----|#/11t2##/11t1#


G U I T A R  2  plays:

#12t1##12t2#E|-----------------------------------------------------------------
B|-----------------------------------------------------------------
G|--14-14-14--10-10-10--12-12-12--9-9-9--10-10-10-7-7--14-14--12---
D|--X--X--X---X--X--X---X--X--X---X-X-X--X--X--X--X-X--X--X---X----
A|--12-12-12--8--8--8---10-10-10--7-7-7--8--8--8--5-5--12-12--10---
E|-----------------------------------------------------------------#/12t2##/12t1#


#13t1##13t2#E|-------------------------------------------------------------------|
B|-------------------------------------------------------------------|
G|--14-14-14--10-10-10--12-12-12--9-9-9--10-10-10-7-7---5--let-------|
D|--X--X--X---X--X--X---X--X--X---X-X-X--X--X--X--X-X---X--ring------|
A|--12-12-12--8--8--8---10-10-10--7-7-7--8--8--8--5-5---3------------|
E|-------------------------------------------------------------------|#/13t2##/13t1#


Both guitars
(02:10)


#14t1##14t2#E|-------------------- 4X
B|--------------------
G|--5-5-5-------------
D|--5-5-5-------------
A|--3-3-3-~~~~~~------
E|--------------------#/14t2##/14t1#


Chorus 2
(02:14)

#15t1##15t2#E|--------------------------------------------------------------------------------------------------------------|
B|--------------------------------------------------------------------------------------------------------------|
G|-7-7-7-7-7-7-7-7-7-7-----------------7-7-7-7-7-7-7-7-7---------------7-7-7-7-7-7-7-7---------------7-7-7-7-7--|
D|-7-7-7-7-7-7-7-7-7-7--5-5-5-5-5-5-5--7-7-7-7-7-7-7-7-7--5-5-5-5-5-5--7-7-7-7-7-7-7-7--7-7-7-7-7-7--7-7-7-7-7--|
A|-5-5-5-5-5-5-5-5-5-5--5-5-5-5-5-5-5--5-5-5-5-5-5-5-5-5--5-5-5-5-5-5--5-5-5-5-5-5-5-5--7-7-7-7-7-7--5-5-5-5-5--|
E|----------------------3-3-3-3-3-3-3---------------------3-3-3-3-3-3-------------------5-5-5-5-5-5-------------|#/15t2##/15t1#


#16t1##16t2#E|------------------------------------------------------------------------------|2X
B|------------------------------------------------------------------------------|
G|-12-12-12-12-12-12-----------------------14-14-14-14-14-----------------------|
D|-12-12-12-12-12-12---12-12-12-12-12-12---14-14-14-14-14---12-12-12-12-12-12---|
A|-10-10-10-10-10-10---12-12-12-12-12-12---12-12-12-12-12---12-12-12-12-12-12---|
E|---------------------10-10-10-10-10-10--------------------10-10-10-10-10-10---|#/16t2##/16t1#

#17t1#(02:32)
#17t2#E|------------------------------------------------------------------------------------------------
B|------------------------------------------------------------------------------------------------
G|-12-12-12-12-12-12-12-12------------------------------------------------------------------------
D|-12-12-12-12-12-12-12-12--12-12-12-12-12-12-12-12-12-12-12-12-12-12-12-12-12--------------------
A|-10-10-10-10-10-10-10-10--12-12-12-12-12-12-12-12-12-12-12-12-12-12-12-12-12--------------------
E|--------------------------10-10-10-10-10-10-10-10-10-10-10-10-10-10-10-10-10---------------------...#/17t2##/17t1#
 "If anyone dasses to risk ..."


#18t1#..continues...
#18t2#E|-------------------------------------------------------------------------------------------------------|
B|-------------------------------------------------------------------------------------------------------|
G|-12-12-12-12-12-12-12-12-12-12-12-12-12-12-12----------------------14-14-14-14-14----------------------|
D|-12-12-12-12-12-12-12-12-12-12-12-12-12-12-12--12-12-12-12-12-12---14-14-14-14-14---12-12-12-12--------|
A|-10-10-10-10-10-10-10-10-10-10-10-10-10-10-10--12-12-12-12-12-12---12-12-12-12-12---12-12-12-12--------|
E|-----------------------------------------------10-10-10-10-10-10--------------------10-10-10-10--------|#/18t2##/18t1#


Then do Chorus 2


#19t1#and then:
#19t2#E|-------------------- 4X
B|--------------------
G|--7-7-7-------------
D|--7-7-7-------------
A|--5-5-5-~~~~~~------
E|--------------------#/19t2##/19t1#


Chorus 3 (End of the song)

(02:55)

#20t1##20t2#E|----------------------------------------------------------------------------------------------------|
B|----------------------------------------------------------------------------------------------------|
G|-9-9-9-9-9-9-9-9-9-9-----------------9-9-9-9-9-9-9-9-9---------------9-9-9-9-9-9-9-9----------------|
D|-9-9-9-9-9-9-9-9-9-9--7-7-7-7-7-7-7--9-9-9-9-9-9-9-9-9--7-7-7-7-7-7--9-9-9-9-9-9-9-9--9-9-9-9-9-9---|
A|-7-7-7-7-7-7-7-7-7-7--7-7-7-7-7-7-7--7-7-7-7-7-7-7-7-7--7-7-7-7-7-7--7-7-7-7-7-7-7-7--9-9-9-9-9-9---|
E|----------------------5-5-5-5-5-5-5---------------------5-5-5-5-5-5-------------------7-7-7-7-7-7---|#/20t2##/20t1#


End the song in:

#21t1##21t2#E|-----|
B|-----|
G|--9--|
D|--9--|
A|--7--|
E|--0--|#/21t2##/21t1#



Letra:
I'm popeye the Sailor Man 
I'm popeye the Sailor Man 
I'm strong to the Finich 
Cuz I eat me spinach 
I'm popeye the Sailor Man. 
I'm one tough gazookus 
Which hates all Palookas 
Wot ain't on the up and square 
I biffs 'em and buffs em 
An' always out-roughs em 
an' none of 'em gits no-where. 
If anyone dasses to risk 
My "Fisk" it's "Boff" an' 
It's "Wham" un understans? 
So, keep "Good Behavor" 
That's your one life saver 
With Popeye the Sailor Man
Composição: Adam Clayton / Ben Raleigh / Bobby Dall / Bret Michaels / C.C. DeVille / Charlotte Caffey / Dave Alvin / David Mook / David Shulthise / Dean Sabatino / Dr. David Evans / Ellen Shipley / Frederick Mercury / Gérard Rinaldi / Jake Long / Jane Wiedlin / Joe Strummer / Joey Ramone / Joseph Gerano / Kohmoto Hiroto / Laurence Mullen / Marty Wilde / Mick Jones / MxPx / Paul David Hewson / Peter Schilling / Rick Nowels / Ricki Wilde / Rikki Rockett / Steve Soto / Tom Petty / Tony Lombardo / ValentineColaboração e revisão: Paulo AbrantesRodolfo Santos