busca

Popeye the Sailorman

Mxpx

Tom: C
E|--------------------------------------------------------------------------------|
B|--------------------------------------------------------------------------------|
G|--------------------2---2-5-2-0------0-2---2-5-4--2-0-2-0-------0-0-0-----------|
D|--5-5-5-3-2-5-----5---3------------------3----------------2---2-------3-0-------|
A|------------------------------------------------------------3--------------3----|
E|--------------------------------------------------------------------------------|

Both Guitars. (00:38)
E|---------------------------------------|--------------------
B|---------------------------------------|--palm-muted--------
G|---5-5-5-5-5-5-5-5-5-5-5-5-5-5-5-5-5-5-|--------------------
D|---x-x-x-x-x-x-x-x-x-x-x-x-x-x-x-x-x-x-|--5-xxxxxxxxxxx-----
A|---3-3-3-3-3-3-3-3-3-3-3-3-3-3-3-3-3-3-|--5-xxxxxxxxxxx-----
E|---------------------------------------|--3-xxxxxxxxxxx-----


Verse (00:54)
E|--------------------------------------------------------------------------------------------------------------|2x
B|--------------------------------------------------------------------------------------------------------------|
G|-5-5-5-5-5-5-5-5-5-5-----------------5-5-5-5-5-5-5-5-5---------------5-5-5-5-5-5-5-5---------------5-5-5-5-5--|
D|-5-5-5-5-5-5-5-5-5-5--3-3-3-3-3-3-3--5-5-5-5-5-5-5-5-5--3-3-3-3-3-3--5-5-5-5-5-5-5-5--5-5-5-5-5-5--5-5-5-5-5--|
A|-3-3-3-3-3-3-3-3-3-3--3-3-3-3-3-3-3--3-3-3-3-3-3-3-3-3--3-3-3-3-3-3--3-3-3-3-3-3-3-3--5-5-5-5-5-5--3-3-3-3-3--|
E|----------------------1-1-1-1-1-1-1---------------------1-1-1-1-1-1-------------------3-3-3-3-3-3-------------|
 "I'm Popeye the sailorman..."


(01:12)
E|------------------------------------------------------------------------------|2X
B|------------------------------------------------------------------------------|
G|-10-10-10-10-10-10-----------------------12-12-12-12-12-----------------------|
D|-10-10-10-10-10-10---10-10-10-10-10-10---12-12-12-12-12---10-10-10-10-10-10---|
A|-8--8--8--8--8--8----10-10-10-10-10-10---10-10-10-10-10---10-10-10-10-10-10---|
E|---------------------8--8--8--8--8--8---------------------8--8--8--8--8--8----|
 "I'm one tough gazookus..."


(01:21)
E|------------------------------------------------------------------------------------------------
B|------------------------------------------------------------------------------------------------
G|-10-10-10-10-10-10-10-10------------------------------------------------------------------------
D|-10-10-10-10-10-10-10-10--10-10-10-10-10-10-10-10-10-10-10-10-10-10-10-10-10--------------------
A|-8--8--8--8--8--8--8--8---10-10-10-10-10-10-10-10-10-10-10-10-10-10-10-10-10--------------------
E|--------------------------8--8--8--8--8--8--8--8--8--8--8--8--8--8--8--8--8---------------------...
 "If anyone dasses to risk ..."


..continues...
E|-------------------------------------------------------------------------------------------------------|
B|-------------------------------------------------------------------------------------------------------|
G|-10-10-10-10-10-10-10-10-10-10-10-10-10-10-10----------------------12-12-12-12-12----------------------|
D|-10-10-10-10-10-10-10-10-10-10-10-10-10-10-10--10-10-10-10-10-10---12-12-12-12-12---10-10-10-10--------|
A|-8--8--8--8--8--8--8--8--8--8--8--8--8--8--8---10-10-10-10-10-10---10-10-10-10-10---10-10-10-10--------|
E|-----------------------------------------------8--8--8--8--8--8---------------------8--8--8--8---------|



Chorus (01:30)

 - PLAY IT LIKE THE VERSE -


Solo  (01:39)

- 1 s t   G u i t a r. -

E|------------------------------------------------------------------------------------
B|------------------------------------------------------------------------------------
G|--5-5-5-5-5-5-5-5-------------------5-5-5-5-5-5-5---------------------------5-5-5---
D|--5-5-5-5-5-5-5-5--5-5-5-5-5-5-5-5--5-5-5-5-5-5-5--3-3-3-3-3--5-5-5-5-5-5---5-5-5---
A|--3-3-3-3-3-3-3-3--5-5-5-5-5-5-5-5--3-3-3-3-3-3-3--3-3-3-3-3--5-5-5-5-5-5---3-3-3---
E|-------------------3-3-3-3-3-3-3-3-----------------1-1-1-1-1--3-3-3-3-3-3-----------

then...


E|-----------------------------------------------------------------------------------|
B|-----------------------------------------------------------------------------------|
G|--5---5---5---5------------------------5---5-----------------------------5--5------|
D|--5---5---5---5-----5---5---5---5------5---5------3---3-------5----5-----5--5------|
A|--3---3---3---3-----5---5---5---5------3---3------3---3-------5----5-----3--3------|
E|--------------------3---3---3---3-----------------1---1-------3----3---------------|


- 2 n d   G u i t a r . -


E|--------------------------------------------------------------------------------------------------------------------|
B|--------------------------------------------------------------------------------------------------------------------|
G|-5-4-5--------------5-4-5----7-6-7-----7-5-4---------------4-5-4----------------------------------------------------|
D|------------5-3-2-5--------------------------7-5-4-5--5-7--------7-5-7-5-3-2-3-2-0---0---------------0-3-2-0-2------|
A|-------3-3-------------------------5-5---------------------------------------------3---3-2-0---0-2-3-----------3-3--|
E|---------------------------------------------------------------------------------------------3----------------------|
  (Have to do this pretty fast and 2X)


Then both guitars
(01:56)

E|----------------------|
B|----palm-mute|---------|
G|----------------------|
D|--5-xxxxxxxxxxxxxxxx--|
A|--5-xxxxxxxxxxxxxxxx--|
E|--3-xxxxxxxxxxxxxxxx--|


After that, G U I T A R   1  plays:
(02:01)

E|------------------------------------------------------------------------------|
B|------------------------------------------------------------------------------| 2X
G|-10-10-10-10-10-10-----------------------12-12-12-12-12-----------------------|
D|-10-10-10-10-10-10---10-10-10-10-10-10---12-12-12-12-12---10-10-10-10-10-10---|
A|-8--8--8--8--8--8----10-10-10-10-10-10---10-10-10-10-10---10-10-10-10-10-10---|
E|---------------------8--8--8--8--8--8---------------------8--8--8--8--8--8----|


G U I T A R  2  plays:

E|-----------------------------------------------------------------
B|-----------------------------------------------------------------
G|--14-14-14--10-10-10--12-12-12--9-9-9--10-10-10-7-7--14-14--12---
D|--X--X--X---X--X--X---X--X--X---X-X-X--X--X--X--X-X--X--X---X----
A|--12-12-12--8--8--8---10-10-10--7-7-7--8--8--8--5-5--12-12--10---
E|-----------------------------------------------------------------


E|-------------------------------------------------------------------|
B|-------------------------------------------------------------------|
G|--14-14-14--10-10-10--12-12-12--9-9-9--10-10-10-7-7---5--let-------|
D|--X--X--X---X--X--X---X--X--X---X-X-X--X--X--X--X-X---X--ring------|
A|--12-12-12--8--8--8---10-10-10--7-7-7--8--8--8--5-5---3------------|
E|-------------------------------------------------------------------|


Both guitars
(02:10)


E|-------------------- 4X
B|--------------------
G|--5-5-5-------------
D|--5-5-5-------------
A|--3-3-3-~~~~~~------
E|--------------------


Chorus 2
(02:14)

E|--------------------------------------------------------------------------------------------------------------|
B|--------------------------------------------------------------------------------------------------------------|
G|-7-7-7-7-7-7-7-7-7-7-----------------7-7-7-7-7-7-7-7-7---------------7-7-7-7-7-7-7-7---------------7-7-7-7-7--|
D|-7-7-7-7-7-7-7-7-7-7--5-5-5-5-5-5-5--7-7-7-7-7-7-7-7-7--5-5-5-5-5-5--7-7-7-7-7-7-7-7--7-7-7-7-7-7--7-7-7-7-7--|
A|-5-5-5-5-5-5-5-5-5-5--5-5-5-5-5-5-5--5-5-5-5-5-5-5-5-5--5-5-5-5-5-5--5-5-5-5-5-5-5-5--7-7-7-7-7-7--5-5-5-5-5--|
E|----------------------3-3-3-3-3-3-3---------------------3-3-3-3-3-3-------------------5-5-5-5-5-5-------------|


E|------------------------------------------------------------------------------|2X
B|------------------------------------------------------------------------------|
G|-12-12-12-12-12-12-----------------------14-14-14-14-14-----------------------|
D|-12-12-12-12-12-12---12-12-12-12-12-12---14-14-14-14-14---12-12-12-12-12-12---|
A|-10-10-10-10-10-10---12-12-12-12-12-12---12-12-12-12-12---12-12-12-12-12-12---|
E|---------------------10-10-10-10-10-10--------------------10-10-10-10-10-10---|

(02:32)
E|------------------------------------------------------------------------------------------------
B|------------------------------------------------------------------------------------------------
G|-12-12-12-12-12-12-12-12------------------------------------------------------------------------
D|-12-12-12-12-12-12-12-12--12-12-12-12-12-12-12-12-12-12-12-12-12-12-12-12-12--------------------
A|-10-10-10-10-10-10-10-10--12-12-12-12-12-12-12-12-12-12-12-12-12-12-12-12-12--------------------
E|--------------------------10-10-10-10-10-10-10-10-10-10-10-10-10-10-10-10-10---------------------...
 "If anyone dasses to risk ..."


..continues...
E|-------------------------------------------------------------------------------------------------------|
B|-------------------------------------------------------------------------------------------------------|
G|-12-12-12-12-12-12-12-12-12-12-12-12-12-12-12----------------------14-14-14-14-14----------------------|
D|-12-12-12-12-12-12-12-12-12-12-12-12-12-12-12--12-12-12-12-12-12---14-14-14-14-14---12-12-12-12--------|
A|-10-10-10-10-10-10-10-10-10-10-10-10-10-10-10--12-12-12-12-12-12---12-12-12-12-12---12-12-12-12--------|
E|-----------------------------------------------10-10-10-10-10-10--------------------10-10-10-10--------|


Then do Chorus 2


and then:
E|-------------------- 4X
B|--------------------
G|--7-7-7-------------
D|--7-7-7-------------
A|--5-5-5-~~~~~~------
E|--------------------


Chorus 3 (End of the song)

(02:55)

E|----------------------------------------------------------------------------------------------------|
B|----------------------------------------------------------------------------------------------------|
G|-9-9-9-9-9-9-9-9-9-9-----------------9-9-9-9-9-9-9-9-9---------------9-9-9-9-9-9-9-9----------------|
D|-9-9-9-9-9-9-9-9-9-9--7-7-7-7-7-7-7--9-9-9-9-9-9-9-9-9--7-7-7-7-7-7--9-9-9-9-9-9-9-9--9-9-9-9-9-9---|
A|-7-7-7-7-7-7-7-7-7-7--7-7-7-7-7-7-7--7-7-7-7-7-7-7-7-7--7-7-7-7-7-7--7-7-7-7-7-7-7-7--9-9-9-9-9-9---|
E|----------------------5-5-5-5-5-5-5---------------------5-5-5-5-5-5-------------------7-7-7-7-7-7---|


End the song in:

E|-----|
B|-----|
G|--9--|
D|--9--|
A|--7--|
E|--0--|



Letra:
I'm popeye the Sailor Man 
I'm popeye the Sailor Man 
I'm strong to the Finich 
Cuz I eat me spinach 
I'm popeye the Sailor Man. 
I'm one tough gazookus 
Which hates all Palookas 
Wot ain't on the up and square 
I biffs 'em and buffs em 
An' always out-roughs em 
an' none of 'em gits no-where. 
If anyone dasses to risk 
My "Fisk" it's "Boff" an' 
It's "Wham" un understans? 
So, keep "Good Behavor" 
That's your one life saver 
With Popeye the Sailor Man

Clipes