busca

South Bound

Mxpx

Tom: G
G (Pm)

It's all the same

A (pm)               D (pm)

same old town with a different name

G (pm)

That's fine by me

        A (pm)                D (pm)

there's only one place that I wanna be





C    D          G

Southbound on I-5

C       D        G

windows down and music on the stereo

    C       D       G

I'm drivin' and I'm dreamin'

        C                 D      G

there's no place that I'd rather go

C (pm)           D (pm)

Staring at white lines on the side of the road





G, A, C,

G, A, C, D

G, A, C,

G, A, C, D





G (palm muted)     



Been on the road awhile 

  A                   D

I gotta get back to a place with style

G

Hang out, havin' fun

  A                     D

I gotta get back to the beach in the sun





C    D          G

Southbound on I-5

C       D        G

windows down and music on the stereo

    C       D       G

I'm drivin' and I'm dreamin'

        C                 D      G

there's no place that I'd rather go

C (pm)        D (pm)

Playing every night, with the occasional fight





G, A, C,

G, A, C, D

G, A, C,

G, A, C, D, C#, D, C#, D

G





solo:



e|--------------|-------------------|----------------|---------------|
B|--------------|-------------------|----------------|---------------|
G|--------------|----------4-5-4----|----------------|---------------|
D|---5-4-5-7-5--|----7-5-7-------7--|-----5-4-5-7-5--|----5/7-4-0----|
A|--------------|--3----------------|---5------------|--3---------0--|
E|--------------|-------------------|----------------|---------------|

e|--------------------|--------------------|-------------------------|
B|--------------------|--------------------|-------------------------|
G|-----7----5--4-5-4--|---7-----5---4-5-4--|---7----5--4-5-4---------|
D|---5----5----------7|-5-----5-----------7|-5----5----------5-7-----|
A|--------------------|--------------------|-------------------------|
E|--------------------|--------------------|-------------------------|

e|------------|------------------|------------------|--------------------|
B|------------|------------------|------------------|--------------------|
G|---4-5-4----|---7----5--4-5-4--|---7----5--4-5-4--|----7----5--4-5-4---|
D|-7-------5-7|-5----5----------7|-5----5----------7|-5----5----------5-7|
A|------------|------------------|------------------|--------------------|
E|------------|------------------|------------------|--------------------|

e|------------|-------------|-------------------|----------------|---------------|
B|------------|-------------|-------------------|----------------|---------------|
G|---4-5-4----|-------------|----------4-5-4----|----------------|---------------|
D|-7-------5-7|--5-4-5-7-5--|----7-5-7-------7--|-----5-4-5-7-5--|----5/7-4-0----|
A|------------|5------------|--3----------------|---5------------|--3---------0--|
E|------------|-------------|-------------------|----------------|---------------|


(termina em G)

Clipes

Cifra Club Pro

Aproveite o Cifra Club com benefícios exclusivos e sem anúncios
Cifra Club Pro
Aproveite o Cifra Club com benefícios exclusivos e sem anúncios