busca

Take On Me

Mxpx

Tom: F
Acordes:
----------------------------
   (G) (C) (F) (A#)(A) (D)
 E|---|---|---|---|---|---|
 B|---|---|---|---|---|---|
 G|---|-5-|---|-3-|-2-|-7-|
 D|-5-|-5-|-3-|-3-|-2-|-7-|
 A|-5-|-3-|-3-|-1-|-0-|-5-|
 E|-3-|---|-1-|---|---|---|
----------------------------

Intro: (2x)
E|---------------------------------------------------------------------------|
B|---------------------------------------------------------------------------|
G|----------------------9-9-10-10-12-10--10----------------------------------|
D|--12-----------10-10----------------------10--8--12-12--10-10-10-12-10-12--|
A|-----13-10-10--------------------------------------------------------------|
E|---------------------------------------------------------------------------|

G         C
Talking away
F
I don't know what
A#       A         G          C
what to say - I'll say it anyway
   F             A#    A        G
Today's another day to find you
        C  D                         A
Shying away I'll be coming for your love


F    C  D   A#           F    C  D   A#
Take on me (take on me), take me on (take on me)
F    C  A# C  F     C D A# 
I'll be gone  In a day....


   G            C
So needless to say
F
I'm odds and ends
A# A            G          C
And you see me stumbling away
F                     A#     A
Slowly learning that life is OK.
G         C
Say after me
D                    A#
It's no better to be safe than sorry


F    C  D   A#           F    C  D   A#
Take on me (take on me), take me on (take on me)
F    C  A# C  F     C D A# 
I'll be gone  In a day....


Bridge:
  ,_________(2x)___________,
E|--------------------------|------------|
B|-----5-----5--------------|------------|
G|---5-----5-----5-8---5-8--|------------|
D|-7-----7-----7-----7------|--/8----/5--|
A|--------------------------|------------|
E|--------------------------|------------|

Riff: (2x)
E|------------------------------------|
B|------------------------------------|
G|----------------------9-9-10-10-12--|
D|--12-----------10-10----------------|
A|-----13-10-10-----------------------|
E|------------------------------------|


Intro (2x)


       G                C
Oh the things that you say
F              A#      A      G        C
Is it life or Just to play my worries away
F                   A#       A
All the things I've got to remember
G        C
Shying away
 D                   A#
I'll be coming for you anyway


F    C  D   A#           F    C  D   A#            |
Take on me (take on me), take me on (take on me)   |(4x)
F    C  A# C  F     C D A#                         | na 4a vez palm-mutted
I'll be gone  In a day....                         |


Transcrito por Caetano Sauer

Clipes