Teenage Politics

Mxpx

B
234
X24442
C
123
X32010
D
123
XX0232
D#
234
X65343
F
234
133211
G
123
320003
Tom: G
intro

#1t1#  B    D#     D  C  D  G   D#     D  C  D 
#1t2#|----------------------------------------------|
|----------------------------------------------|
|-3-3--8-8-8--7--5--7-------8-8-8--7--5--7------|
|-3-3--8-8-8--7--5--7--5-5--8-8-8--7--5--7------|
|-1-1--6-6-6--5--3--5--5-5--6-6-6--5--3--5------|
|----------------------3-3---------------------|#/1t2##/1t1#
 
#2t1#   C    D#     D  C  D  F   D#     D  D# F C               2x
#2t2#|----------------------------------------------|
|----------------------------------------------|
|(7)5-5--8-8-8--7--5--7-------8-8-8--7--8--10--|
|(7)5-5--8-8-8--7--5--7--3-3--8-8-8--7--8--10--|
|(5)3-3--6-6-6--5--3--5--3-3--6-6-6--5--6--8s3-|
|------------------------1-1-------------------|#/2t2##/2t1#

versos

#3t1#  B        G       C       F
#3t2#|----------------------------------------------|
|----------------------------------------------|
|-3-3-3-3-----------5-5-5-5---------------------|
|-3-3-3-3--5-5-5-5--5-5-5-5--3-3-3-3-------------|  2x
|-1-1-1-1--5-5-5-5--3-3-3-3--3-3-3-3-------------|
|----------3-3-3-3-----------1-1-1-1-------------|#/3t2##/3t1#

B             G 
no i'm not mad but i think they forget
C                             F
what it's like and how hard it is to be a teenager
B                        G
this is a new day and age, we read a different book
C                         F
where elvis ain't the rage and polyester ain't the look


versos


B                    G
and will we change at all when we get old?
C                      F
or will we be the same? never do what were told
B                        G
well that depends on you, are you doing the right thing?
C                      F
it's not about control, it's about you and me and understanding



ponte no traste 1 , 5ª corda
 
#4t1# B 
#4t2#|----------------------------------------------|
|----------------------------------------------|
|----------------------------------------------|
|-3-3-x-x-x-x-3-3-x-x-x-x-3-3-x-x-x-x-3--------|
|-1-1-x-x-x-x-1-1-x-x-x-x-1-1-x-x-x-x-1--------|
|----------------------------------------------|#/4t2##/4t1#

Refrão
 
#5t1#  C          F
#5t2#|----------------------------------------------|
|----------------------------------------------|
|-5-5-5-5-5------------------------------------|
|-5-5-5-5-5--3-3-3-3-3-------------------------| 5x
|-3-3-3-3-3--3-3-3-3-3-------------------------|
|------------1-1-1-1-1-------------------------|#/5t2##/5t1#

C                F     
teenage politics it's too confusing
C                  F
politics shmolitics it's too confusing
C               F    
teenage politics it's too confusing
C                  F  
politics shmolitics it's too confusing

metade da intro

versos

is it time again to disagree
about anything, everything and what's on tv
it's a vicious circle, never ending
a linear equation worldy extending

versos

no ill never be like you ill never ever be like you
oh no! i'm just like you!

final
    
   D#     D      B
   Juuust Liiike Yooouuu!!!
  
#6t1##6t2#|------------------------------------------------|
|------------------------------------------------|
|-8--7--3...-------------------------------------|
|-8--7--3...-------------------------------------|
|-6--5--1...-------------------------------------|
|------------------------------------------------|#/6t2##/6t1#
Composição: Adam Clayton / Ben Raleigh / Bobby Dall / Bret Michaels / C.C. DeVille / Charlotte Caffey / Dave Alvin / David Mook / David Shulthise / Dean Sabatino / Dr. David Evans / Ellen Shipley / Frederick Mercury / Gérard Rinaldi / Jake Long / Jane Wiedlin / Joe Strummer / Joey Ramone / Joseph Gerano / Kohmoto Hiroto / Laurence Mullen / Marty Wilde / Mick Jones / MxPx / Paul David Hewson / Peter Schilling / Rick Nowels / Ricki Wilde / Rikki Rockett / Steve Soto / Tom Petty / Tony Lombardo / ValentineColaboração e revisão: vinicius terlizzi