busca

The Next Big Thing

Mxpx

Tom: A
one,two,three Go!!!
intro:E A B E 
|---------------------------------------------|
|---------------------------------------------|
|---------------------------------------------|
|-------9-------9-----------------------------|
|-2-7-9-7-x-7-9-7--9-9-9-9-9-9-9-9-9----------|
|-0-5-7---0-5-7----7-7-7-7-7-7-7-7-7----------|
 |------4x-------| 

versos:E A B
|---------------------------------------------|
|---------------------------------------------|
|---------------------------------------------|
|---------------------------------------------|
|-2-2-2-2-2-7-7-7-7-7-9-9-9-9-9-9-9-9-9-9-----|
|-0-0-0-0-0-5-5-5-5-5-7-7-7-7-7-7-7-7-7-7-----|
    Pm..........................................

Music today isn't the way it's supposed to be
You like what your told
And if you know it's good then you'll agree

ponte:A E D E B
|---------------------------------------------------------------------|
|---------------------------------------------------------------------|
|---------------------------------------------------------------------|
|---------------9-9-9-9-9-9-9-9-9-7-x-7-x-7-x-7-9-x-9-x-9-x-9---------|
|-7-x-7-x-7-x-7-7-7-7-7-7-7-7-7-7-5-x-5-x-5-x-5-7-x-7-x-7-x-7-999999--|
|-5-x-5-x-5-x-5-----------------------------------------------777777--|

Someone to tell you who you are
Someone to tell you who to be
Someone to tell you what you see

Refrão:E A B E
|---------------------------------------------|
|---------------------------------------------|
|---------------------------------------------|
|-------9-------9-----------------------------|
|-2-7-9-7-x-7-9-7--9-9-9-9-9-9-9-9-9----------|
|-0-5-7---0-5-7----7-7-7-7-7-7-7-7-7----------|
 |------4x------| 

It's the next big thing
(repeat 3x)
So you better be listening....

Versos:E A B

You go to the store
It's the same bands stacked on eatch other
You've heard it before
But now it's better than its cover

ponte:A E D E B
|---------------------------------------------------------------------|
|---------------------------------------------------------------------|
|---------------------------------------------------------------------|
|---------------9-9-9-9-9-9-9-9-9-7-x-7-x-7-x-7-9-x-9-x-9-x-9---------|
|-7-x-7-x-7-x-7-7-7-7-7-7-7-7-7-7-5-x-5-x-5-x-5-7-x-7-x-7-x-7-999999--|
|-5-x-5-x-5-x-5-----------------------------------------------777777--|

Someone to tell you who you are
Someone to tell you who to be
Someone to tell you what you see

Refrão:E A B E
|---------------------------------------------|
|---------------------------------------------|
|---------------------------------------------|
|-------9-------9-----------------------------|
|-2-7-9-7-x-7-9-7--9-9-9-9-9-9-9-9-9----------|
|-0-5-7---0-5-7----7-7-7-7-7-7-7-7-7----------|
 |------4x------| 

It's the next big thing
(repeat 3x)
So you better be listening....

Yoh!

ulllll galera tirei akeli solo lokaum lah hehehe
tah ae
|---------------------------------------------|
|-55555-4-2-00000-2-4-5-0-5/7-5-0-4/5---------|
|---------------------------------------------|
|---------------------------------------------|
|---------------------------------------------|
|---------------------------------------------|
 |---------3x-------|  

|---------------------------------------------|
|---------------------------------------------|
|--9---9--9------9---9---------------------------|
|-7-7-6-6-------7-7-6-6-6/9---------------------------|
|--------7-7-7/9-----------------------------------|
|---------------------------------------------|


......How low can you go......
How low will you go....

Refrão:E A B E
|---------------------------------------------|
|---------------------------------------------|
|---------------------------------------------|
|-------9-------9-----------------------------|
|-2-7-9-7-x-7-9-7--9-9-9-9-9-9-9-9-9----------|
|-0-5-7---0-5-7----7-7-7-7-7-7-7-7-7----------|
 |------4x------|

To be the next big thing!
(Repeat chorus 2x)

Clipes