busca

Think Twice

Mxpx

Tom: D
Play notes more than once

Verse:

E|---------------------------------------------------------------
B|---------------------------------------------------------------
G|-------6-------4-----------------------------------------------
D|---6---6---7---4-----------------------------------------------
A|---6---4---7---2-----------------------------------------------
E|---4-------5---------------------------------------------------

Pre|-Chorus:

E|---------------------------------------------------------------
B|---------------------------------------------------------------
G|-------4-------------------------------------------------------
D|---7---4-------------------------------------------------------
A|---7---2-------------------------------------------------------
E|---5-----------------------------------------------------------

Chorus:

E|---------------------------------------------------------------
B|---------------------------------------------------------------
G|---5-------4---------------------------------------------------
D|---5---7---4---------------------------------------------------
A|---7---7---2---------------------------------------------------
E|-------5-------------------------------------------------------

Bridge:

E|---------------------------------------------------------------
B|---------------------------------------------------------------
G|---9---6-------9---6-------------------------------------------
D|---9---6---6---9---6-------------------------------------------
A|---7---4---6---7---4-------------------------------------------
E|-----------4---------------------------------------------------

Clipes

Cifra Club Pro

Aproveite o Cifra Club com benefícios exclusivos e sem anúncios
Cifra Club Pro
Aproveite o Cifra Club com benefícios exclusivos e sem anúncios