Think Twice

Mxpx

Tom: G
Play notes more than once

Verse:

#1t1##1t2#E|---------------------------------------------------------------
B|---------------------------------------------------------------
G|-------6-------4-----------------------------------------------
D|---6---6---7---4-----------------------------------------------
A|---6---4---7---2-----------------------------------------------
E|---4-------5---------------------------------------------------#/1t2##/1t1#

Pre|-Chorus:

#2t1##2t2#E|---------------------------------------------------------------
B|---------------------------------------------------------------
G|-------4-------------------------------------------------------
D|---7---4-------------------------------------------------------
A|---7---2-------------------------------------------------------
E|---5-----------------------------------------------------------#/2t2##/2t1#

Chorus:

#3t1##3t2#E|---------------------------------------------------------------
B|---------------------------------------------------------------
G|---5-------4---------------------------------------------------
D|---5---7---4---------------------------------------------------
A|---7---7---2---------------------------------------------------
E|-------5-------------------------------------------------------#/3t2##/3t1#

Bridge:

#4t1##4t2#E|---------------------------------------------------------------
B|---------------------------------------------------------------
G|---9---6-------9---6-------------------------------------------
D|---9---6---6---9---6-------------------------------------------
A|---7---4---6---7---4-------------------------------------------
E|-----------4---------------------------------------------------#/4t2##/4t1#
Composição: Clyde Otis / Jimmy Williams / Joe ShapiroColaboração e revisão: Danilo Dutra