busca

Unopposed

Mxpx

Tom: G#
INTRO
e|-----------------------------------------|
B|-----------------------------------------|
G|-----------5-5-5-5-----------------------|
D|--3-3-3-3--5-5-5-5--6-6-6--5-5-5-5-5-----| x2
A|--3-3-3-3--3-3-3-3--6-6-6--5-5-5-5-5-----|
E|--1-1-1-1-----------4-4-4--3-3-3-3-3-----|

e|----------------------------------------------------------|
B|----------------------------------------------------------|
G|-----------------------------------5----------------------|
D|--3-3-3-3-3--6--5----3-3-3-3-3--6--5----3-3-3-3-3--6--5---|
A|--3-3-3-3-3--6--5----3-3-3-3-3--6--3----3-3-3-3-3--6--5---|
E|--1-1-1-1-1--4--3----1-1-1-1-1--4-------1-1-1-1-1--4--3---|

e|------------------------|
B|------------------------|
G|---6-6--5-5--3-3--------|
D|---6-6--5-5--3-3--6-6---|
A|---4-4--3-3--1-1--6-6---|
E|------------------4-4---|

e|----------------------------------------------------------|
B|----------------------------------------------------------|
G|-----------------------------------5----------------------|
D|--3-3-3-3-3--6--5----3-3-3-3-3--6--5----3-3-3-3-3--6--5---|
A|--3-3-3-3-3--6--5----3-3-3-3-3--6--3----3-3-3-3-3--6--5---|
E|--1-1-1-1-1--4--3----1-1-1-1-1--4-------1-1-1-1-1--4--3---|

                         VERSE
e|-----------------|    |-----------------------------|
B|-----------------|    |-----------------------------|
G|---6--5--3-------| >> |-----------------6------5----|
D|---6--5--3--6----| >> |---3------6------6------5----| x2
A|---4--3--1--6----|    |---3------6------4------3----|
E|------------4----|    |---1------4------------------|

e|-----------------------------------------|
B|-----------------------------------------|
G|-------------6-6--5------------(6)-(6)---|
D|---3-3--6----6-6--5----3-3--6--(6)-(6)---|
A|---3-3--6----4-4--3----3-3--6--(4)-(4)---|
E|---1-1--4--------------1-1--4------------|


e|----------------------|-----------------------------------|
B|----------------------|-----------------------------------|
G|-------------6-6--5---|----------6--3--------------6--3---|
D|---3-3--6----6-6--5---|---3------6--3-------3------6--3---|
A|---3-3--6----4-4--3---|---3------4--1-------3------4--1---|
E|---1-1--4-------------|---1-----------------1-------------|

e|--------------------------|
B|--------------------------|
G|----6--5-------6--5-------|
D|----6--5--3----6--5--6----| x2
A|----4--3--3----4--3--6----|
E|----------1----------4----|


e|--------------------|
B|--------------------|
G|----6-6-6-6-6-6-6---|
D|----6-6-6-6-6-6-6---|
A|----4-4-4-4-4-4-4---|
E|--------------------|
  pm . . . . . . .

e|---------------------------------------------|     |-----|
B|---------------------------------------------|     |-----|
G|---6--5------6--5--8----6--5------6--5-------|     |-----|
D|---6--5--3---6--5--8----6--5--3---6--5--6----| x2  |--3--|
A|---4--3--3---4--3--6----4--3--3---4--3--6----|     |--3--|
E|---------1--------------------1---------4----|     |--1--|


e|--------------------------------|
B|--------------------------------|
G|---55-55-55-55-55-55-55-65-55---|
D|---55-55-55-55-55-55-55-65-55---| x2
A|---33-33-33-33-33-33-33-43-33---|
E|--------------------------------|

e|----------------------------|
B|----------------------------|
G|----------5-----------------|
D|--3-3--6--5--5-5-5--6--5----| x4
A|--3-3--6--3--5-5-5--6--5----|
E|--1-1--4-----3-3-3--4--3----|

e|-----------------|
B|-----------------|
G|---------6--5----|
D|---3--6--6--5----| x2
A|---3--6--4--3----|
E|---1--4----------|

e|-----------------------------------------|
B|-----------------------------------------|
G|-------------6-6--5------------(6)-(6)---|
D|---3-3--6----6-6--5----3-3--6--(6)-(6)---|
A|---3-3--6----4-4--3----3-3--6--(4)-(4)---|
E|---1-1--4--------------1-1--4------------|


e|----------------------|------------------------|
B|----------------------|------------------------|
G|-------------6-6--5---|------6--3-------6--3---|
D|---3-3--6----6-6--5---|---3--6--3----3--6--3---|
A|---3-3--6----4-4--3---|---3--4--1----3--4--1---|
E|---1-1--4-------------|---1----------1---------|

e|-------------------------|
B|-------------------------|
G|---6--5-------6--5-------|
D|---6--5--3----6--5--6----| x2
A|---4--3--3----4--3--6----|
E|---------1----------4----|

e|------------------------------------------------|
B|------------------------------------------------|
G|---6--5------6--5--8----6--5--------------------|
D|---6--5--3---6--5--8----6--5--3-----6---5----3--|
A|---4--3--3---4--3--6----4--3--3-----6---5----3--|
E|---------1--------------------1-----4---3----1--|

Clipes