Unopposed

Mxpx

Tom: G
#1t1#INTRO
#1t2#e|-----------------------------------------|
B|-----------------------------------------|
G|-----------5-5-5-5-----------------------|
D|--3-3-3-3--5-5-5-5--6-6-6--5-5-5-5-5-----| x2
A|--3-3-3-3--3-3-3-3--6-6-6--5-5-5-5-5-----|
E|--1-1-1-1-----------4-4-4--3-3-3-3-3-----|#/1t2##/1t1#

#2t1##2t2#e|----------------------------------------------------------|
B|----------------------------------------------------------|
G|-----------------------------------5----------------------|
D|--3-3-3-3-3--6--5----3-3-3-3-3--6--5----3-3-3-3-3--6--5---|
A|--3-3-3-3-3--6--5----3-3-3-3-3--6--3----3-3-3-3-3--6--5---|
E|--1-1-1-1-1--4--3----1-1-1-1-1--4-------1-1-1-1-1--4--3---|#/2t2##/2t1#

#3t1##3t2#e|------------------------|
B|------------------------|
G|---6-6--5-5--3-3--------|
D|---6-6--5-5--3-3--6-6---|
A|---4-4--3-3--1-1--6-6---|
E|------------------4-4---|#/3t2##/3t1#

#4t1##4t2#e|----------------------------------------------------------|
B|----------------------------------------------------------|
G|-----------------------------------5----------------------|
D|--3-3-3-3-3--6--5----3-3-3-3-3--6--5----3-3-3-3-3--6--5---|
A|--3-3-3-3-3--6--5----3-3-3-3-3--6--3----3-3-3-3-3--6--5---|
E|--1-1-1-1-1--4--3----1-1-1-1-1--4-------1-1-1-1-1--4--3---|#/4t2##/4t1#

#5t1#                         VERSE
#5t2#e|-----------------|    |-----------------------------|
B|-----------------|    |-----------------------------|
G|---6--5--3-------| >> |-----------------6------5----|
D|---6--5--3--6----| >> |---3------6------6------5----| x2
A|---4--3--1--6----|    |---3------6------4------3----|
E|------------4----|    |---1------4------------------|#/5t2##/5t1#

#6t1##6t2#e|-----------------------------------------|
B|-----------------------------------------|
G|-------------6-6--5------------(6)-(6)---|
D|---3-3--6----6-6--5----3-3--6--(6)-(6)---|
A|---3-3--6----4-4--3----3-3--6--(4)-(4)---|
E|---1-1--4--------------1-1--4------------|#/6t2##/6t1#


#7t1##7t2#e|----------------------|-----------------------------------|
B|----------------------|-----------------------------------|
G|-------------6-6--5---|----------6--3--------------6--3---|
D|---3-3--6----6-6--5---|---3------6--3-------3------6--3---|
A|---3-3--6----4-4--3---|---3------4--1-------3------4--1---|
E|---1-1--4-------------|---1-----------------1-------------|#/7t2##/7t1#

#8t1##8t2#e|--------------------------|
B|--------------------------|
G|----6--5-------6--5-------|
D|----6--5--3----6--5--6----| x2
A|----4--3--3----4--3--6----|
E|----------1----------4----|#/8t2##/8t1#


#9t1##9t2#e|--------------------|
B|--------------------|
G|----6-6-6-6-6-6-6---|
D|----6-6-6-6-6-6-6---|
A|----4-4-4-4-4-4-4---|
E|--------------------|#/9t2##/9t1#
  pm . . . . . . .

#10t1##10t2#e|---------------------------------------------|     |-----|
B|---------------------------------------------|     |-----|
G|---6--5------6--5--8----6--5------6--5-------|     |-----|
D|---6--5--3---6--5--8----6--5--3---6--5--6----| x2  |--3--|
A|---4--3--3---4--3--6----4--3--3---4--3--6----|     |--3--|
E|---------1--------------------1---------4----|     |--1--|#/10t2##/10t1#


#11t1##11t2#e|--------------------------------|
B|--------------------------------|
G|---55-55-55-55-55-55-55-65-55---|
D|---55-55-55-55-55-55-55-65-55---| x2
A|---33-33-33-33-33-33-33-43-33---|
E|--------------------------------|#/11t2##/11t1#

#12t1##12t2#e|----------------------------|
B|----------------------------|
G|----------5-----------------|
D|--3-3--6--5--5-5-5--6--5----| x4
A|--3-3--6--3--5-5-5--6--5----|
E|--1-1--4-----3-3-3--4--3----|#/12t2##/12t1#

#13t1##13t2#e|-----------------|
B|-----------------|
G|---------6--5----|
D|---3--6--6--5----| x2
A|---3--6--4--3----|
E|---1--4----------|#/13t2##/13t1#

#14t1##14t2#e|-----------------------------------------|
B|-----------------------------------------|
G|-------------6-6--5------------(6)-(6)---|
D|---3-3--6----6-6--5----3-3--6--(6)-(6)---|
A|---3-3--6----4-4--3----3-3--6--(4)-(4)---|
E|---1-1--4--------------1-1--4------------|#/14t2##/14t1#


#15t1##15t2#e|----------------------|------------------------|
B|----------------------|------------------------|
G|-------------6-6--5---|------6--3-------6--3---|
D|---3-3--6----6-6--5---|---3--6--3----3--6--3---|
A|---3-3--6----4-4--3---|---3--4--1----3--4--1---|
E|---1-1--4-------------|---1----------1---------|#/15t2##/15t1#

#16t1##16t2#e|-------------------------|
B|-------------------------|
G|---6--5-------6--5-------|
D|---6--5--3----6--5--6----| x2
A|---4--3--3----4--3--6----|
E|---------1----------4----|#/16t2##/16t1#

#17t1##17t2#e|------------------------------------------------|
B|------------------------------------------------|
G|---6--5------6--5--8----6--5--------------------|
D|---6--5--3---6--5--8----6--5--3-----6---5----3--|
A|---4--3--3---4--3--6----4--3--3-----6---5----3--|
E|---------1--------------------1-----4---3----1--|#/17t2##/17t1#
Composição: Mike HerreraColaboração e revisão: Danilo Dutra