busca

Want Ad

Mxpx

Tom: F#
    F#   D#  F#  B   F#  C#               Use these chords in this
E---------------------------              order in all of the 
B---------------------------              verses.
G---11---8-------4-------6--            <-------------------------
D---11---8---4---4---4---6--       
A----9---6---4---2---4---4--
E------------2-------2------            (x2)
__________________________________________________________________
F#  D#                            F#(muffled)
    i need the kind of girl that knows                  Verse #1
B           F#                C#
a girl that likes to wear my clothes
F#  D#                         F#(muffled)
    someone who always buys me coke
B           F#                C#
a girl that laughs at all my jokes
    F#   D#  A#  B   C#   F#  A#  B
E------------------------------------
B------------------------------------
G---11---8---------------------------
D---11---8---8---9---11---4---8---9--
A----9---6---8---9---11---4---8---9--
E------------6---7----9---2---6---7--
F#                     D#
that's the girl that i want to see                      Chorus
A#       B
fall in love with me
C#                      F#
that's the girl that i long to know
A#                 B
oh how i love her so

(Same as verse #1)
i'm looking for a girl that writes me songs             Verse #2
and talks to Jesus all day long
and the way she does her hair
no one else can compare
Back To Chorus:
F#  D#                    F#(muffled)
    probably meet her at a show                         Verse #3
B      F#                C#
when i look at her i'll know
F#    D#                     F#(muffled)
that shes the perfect one for me
B           F#              C#
and with her i will always be
F#  D#  B  C#                           (x4)
the one for me

Clipes

Cifra Club Pro

Aproveite o Cifra Club com benefícios exclusivos e sem anúncios
Cifra Club Pro
Aproveite o Cifra Club com benefícios exclusivos e sem anúncios