busca

Weak

Mxpx

Intro                                    (1)
G|----------------------------------------
D|---5------------------------------------
A|-7---00-3-0-5-7-5-----------------------
E|----------------------------------------

Fill-in (the cracks)                     (2)
G|----------------------------------------
D|----5-----------------------------------
A|-77----00-3--00-5-7-5-------------------
E|----------------------------------------

Pre-Verse                                (3)
G|----------------------------------------
D|----------------------------------------
A|-7-7-7-5-0>-------5-0>------------------
E|------------3-3-3-----------------------

Verse                                    (4)
G|----------------------------------------
D|----------------------------------------
A|-0>-3-5-2---0>-3-5-3-5------------------
E|----------3-----------------------------

Chorus                                   (5)
G|----------------------------------------
D|----------------------------------------
A|-7>-------------------------------------
E|----3-5-3-5-----------------------------

Post-Chorus Fill-in                      (6)
G|----------------------------------------
D|----5>----------------5>----------------
A|-7>----5-0h3h5-5-4--7>---5-0h3h5-5-4----
E|----------------------------------------

Bridge                                   (7)
G|----------------------------------------
D|----------------------------------------
A|-77-5-7--55-3-5--2-3--------------------
E|----------------------------------------


Em Ordem: 1, 2, 1, 2, 3, 4, 5, 6,
       4, 5, 7, 6, 4, 5, 6.

Clipes

Cifra Club Pro

Aproveite o Cifra Club com benefícios exclusivos e sem anúncios
Cifra Club Pro
Aproveite o Cifra Club com benefícios exclusivos e sem anúncios