busca

All Star

Nando Reis

(intro) 

(riff 1)
G--------------------------------------------------------------------------------
D---------------------------------------------------------------7----------------
A----------------2---------------------------------------2-----------------------
E--0-------------------5------------------0--------------------------------------

(refrão) estranho é gostar tanto do seu all star azul...
G---------------------------------------------------------------------------------------------
D---------------------------------------------------------------------------------------------
A-0-2-3----5----------0-2-3-----5-------------------------5---------3-3-------2----------0-0--
E--------------3-3---------------------3--3---2------0-0--------------------------------------

(refrão parte 2)
G-------------------------------------------------------------------------------------------
D-------------------------------------------------------------------------------------------
A---------------------------------------5-----------3-3-----------2--------------------0-0--
E----3-3------2---------0-0-----------------------------------------------------------------

Clipes