busca

Espatódea

Nando Reis

Tom: D
[Intro]

   D7M                    D6
E|-9------------9---------------------------------|
B|------------------------12-----------12---------|
G|--------11---------11----------11----------11---|
D|-12--12----12---12------12--12----12----12------|
A|------------------------------------------------|
E|------------------------------------------------|

   D                       D11+
E|------------------------------------------------|
B|-10-----------10---------9------------9---------|
G|--------11----------11----------11---------11---|
D|-12--12----12----12------12--12----12---12------|
A|------------------------------------------------|
E|------------------------------------------------|

   A
E|------------0-5--------------------0-5----------|
B|-----5--5h7-----7-5---------5--5h7-----7-5------|
G|---6----------------6-----6----------------6----|
D|-7----------------------7-----------------------|
A|------------------------------------------------|
E|------------------------------------------------|

   D7M                    D6
E|-9------------9---------------------------------|
B|------------------------12-----------12---------|
G|--------11---------11----------11----------11---|
D|-12--12----12---12------12--12----12----12------|
A|------------------------------------------------|
E|------------------------------------------------|

   D                       D11+
E|------------------------------------------------|
B|-10-----------10---------9------------9---------|
G|--------11----------11----------11---------11---|
D|-12--12----12----12------12--12----12---12------|
A|------------------------------------------------|
E|------------------------------------------------|

   A
E|------------0-5--------------------0-5----------|
B|-----5--5h7-----7-5---------5--5h7-----7-5------|
G|---6----------------6-----6----------------6----|
D|-7----------------------7-----------------------|
A|------------------------------------------------|
E|------------------------------------------------|

[Primeira Parte]

 D7M    D6
Minha flor
 D     D11+
Minha cor
       A
Minha cara
  D7M      D6
Quarta estrela
 D        D11+
Letras, três
        A
Uma estrada

[Refrão]

     Em       Em7M    Em7
Não sei se o mundo é bão
    A             D9  D9/C#
Mas ele ficou melhor
          Bm7      Bm7/A
Quando você chegou
         G   ( G  D/F#  Em )
E perguntou
               A   A4/7  A
Tem lugar pra mim?

[Segunda Parte]

    D7M                    D6
E|-9------------9---------------------------------|
B|------------------------12-----------12---------|
G|--------11---------11----------11----------11---|
D|-12--12----12---12------12--12----12----12------|
A|------------------------------------------------|
E|------------------------------------------------|

    D                       D11+
E|------------------------------------------------|
B|-10-----------10---------9------------9---------|
G|--------11----------11----------11---------11---|
D|-12--12----12----12------12--12----12---12------|
A|------------------------------------------------|
E|------------------------------------------------|

    A
E|------------0-5--------------------0-5----------|
B|-----5--5h7-----7-5---------5--5h7-----7-5------|
G|---6----------------6-----6----------------6----|
D|-7----------------------7-----------------------|
A|------------------------------------------------|
E|------------------------------------------------|

D7M  D6
Espatódea
 D   D11+
Gineceu
        A
Cor de pólen
 D7M    D6
Sol do dia
 D      D11+
Nuvem branca
     A
Sem sardas

[Refrão]

     Em         Em7M    Em7
Não sei quanto mundo é bão
    A            D9  D9/C#
Mas ele está melhor
             Bm7     Bm7/A
Desde que você chegou
         G  ( G  D/F#  Em )
E explicou
             C   D9(11)
O mundo pra mim

[Ponte]

     G                      Gm
Não sei se esse mundo está são
         D9           D9/C#     Bm7  Bm7/A
Mas pro mundo que eu vim já não era
     G                 A7
Meu mundo não teria razão
                 D7M
Se não fosse a Zoé

( D6  D  D11+  A )
( D7M  D6  D  D11+  A )

    D7M                    D6
E|-9------------9---------------------------------|
B|------------------------12-----------12---------|
G|--------11---------11----------11----------11---|
D|-12--12----12---12------12--12----12----12------|
A|------------------------------------------------|
E|------------------------------------------------|

    D                       D11+
E|------------------------------------------------|
B|-10-----------10---------9------------9---------|
G|--------11----------11----------11---------11---|
D|-12--12----12----12------12--12----12---12------|
A|------------------------------------------------|
E|------------------------------------------------|

    A
E|------------0-5--------------------0-5----------|
B|-----5--5h7-----7-5---------5--5h7-----7-5------|
G|---6----------------6-----6----------------6----|
D|-7----------------------7-----------------------|
A|------------------------------------------------|
E|------------------------------------------------|

    D7M                    D6
E|-9------------9---------------------------------|
B|------------------------12-----------12---------|
G|--------11---------11----------11----------11---|
D|-12--12----12---12------12--12----12----12------|
A|------------------------------------------------|
E|------------------------------------------------|

    D                       D11+
E|------------------------------------------------|
B|-10-----------10---------9------------9---------|
G|--------11----------11----------11---------11---|
D|-12--12----12----12------12--12----12---12------|
A|------------------------------------------------|
E|------------------------------------------------|

    A
E|------------0-5--------------------0-5----------|
B|-----5--5h7-----7-5---------5--5h7-----7-5------|
G|---6----------------6-----6----------------6----|
D|-7----------------------7-----------------------|
A|------------------------------------------------|
E|------------------------------------------------|

[Refrão]

     Em       Em7M    Em7
Não sei se o mundo é bão
    A            D9  D9/C#
Mas ele está melhor
             Bm7     Bm7/A
Desde que você chegou
         G  ( G  D/F#  Em )
E explicou
             C   D9(11)
O mundo pra mim

[Final]

     G                      Gm
Não sei se esse mundo está são
         D9           D9/C#     Bm7  Bm7/A
Mas pro mundo que eu vim já não era
     G                 A7
Meu mundo não teria razão
                 D7M  D9
Se não fosse a Zoé

Clipes