Espatódea

Nando Reis

A
123
X02220
A4/7
12
X02030
A7
12
X02020
Bm7
34
X24232
Bm7/A
234
524232
C
123
X32010
D
123
XX0232
D/F#
1234
2X0232
D11+
234
X56775
D6
134
X5420X
D7M
123
XX0222
D9
12
XX0230
D9(11)
123
X54030
D9/C#
123
X40230
Em
12
022000
Em7
123
022030
Em7M
1234
XX2443
G
123
320003
Gm
34
355333
Tom: G
[Intro]

#1t1#   D7M                    D6
#1t2#E|-9------------9---------------------------------|
B|------------------------12-----------12---------|
G|--------11---------11----------11----------11---|
D|-12--12----12---12------12--12----12----12------|
A|------------------------------------------------|
E|------------------------------------------------|#/1t2##/1t1#

#2t1#   D                       D11+
#2t2#E|------------------------------------------------|
B|-10-----------10---------9------------9---------|
G|--------11----------11----------11---------11---|
D|-12--12----12----12------12--12----12---12------|
A|------------------------------------------------|
E|------------------------------------------------|#/2t2##/2t1#

#3t1#   A
#3t2#E|------------0-5--------------------0-5----------|
B|-----5--5h7-----7-5---------5--5h7-----7-5------|
G|---6----------------6-----6----------------6----|
D|-7----------------------7-----------------------|
A|------------------------------------------------|
E|------------------------------------------------|#/3t2##/3t1#

#4t1#   D7M                    D6
#4t2#E|-9------------9---------------------------------|
B|------------------------12-----------12---------|
G|--------11---------11----------11----------11---|
D|-12--12----12---12------12--12----12----12------|
A|------------------------------------------------|
E|------------------------------------------------|#/4t2##/4t1#

#5t1#   D                       D11+
#5t2#E|------------------------------------------------|
B|-10-----------10---------9------------9---------|
G|--------11----------11----------11---------11---|
D|-12--12----12----12------12--12----12---12------|
A|------------------------------------------------|
E|------------------------------------------------|#/5t2##/5t1#

#6t1#   A
#6t2#E|------------0-5--------------------0-5----------|
B|-----5--5h7-----7-5---------5--5h7-----7-5------|
G|---6----------------6-----6----------------6----|
D|-7----------------------7-----------------------|
A|------------------------------------------------|
E|------------------------------------------------|#/6t2##/6t1#

[Primeira Parte]

 D7M    D6
Minha flor
 D     D11+
Minha cor
       A
Minha cara
  D7M      D6
Quarta estrela
 D        D11+
Letras, três
        A
Uma estrada

[Refrão]

     Em       Em7M    Em7
Não sei se o mundo é bão
    A             D9  D9/C#
Mas ele ficou melhor
          Bm7      Bm7/A
Quando você chegou
         G   ( G  D/F#  Em )
E perguntou
               A   A4/7  A
Tem lugar pra mim?

[Segunda Parte]

#7t1#    D7M                    D6
#7t2#E|-9------------9---------------------------------|
B|------------------------12-----------12---------|
G|--------11---------11----------11----------11---|
D|-12--12----12---12------12--12----12----12------|
A|------------------------------------------------|
E|------------------------------------------------|#/7t2##/7t1#

#8t1#    D                       D11+
#8t2#E|------------------------------------------------|
B|-10-----------10---------9------------9---------|
G|--------11----------11----------11---------11---|
D|-12--12----12----12------12--12----12---12------|
A|------------------------------------------------|
E|------------------------------------------------|#/8t2##/8t1#

#9t1#    A
#9t2#E|------------0-5--------------------0-5----------|
B|-----5--5h7-----7-5---------5--5h7-----7-5------|
G|---6----------------6-----6----------------6----|
D|-7----------------------7-----------------------|
A|------------------------------------------------|
E|------------------------------------------------|#/9t2##/9t1#

D7M  D6
Espatódea
 D   D11+
Gineceu
        A
Cor de pólen
 D7M    D6
Sol do dia
 D      D11+
Nuvem branca
     A
Sem sardas

[Refrão]

     Em         Em7M    Em7
Não sei quanto mundo é bão
    A            D9  D9/C#
Mas ele está melhor
             Bm7     Bm7/A
Desde que você chegou
         G  ( G  D/F#  Em )
E explicou
             C   D9(11)
O mundo pra mim

[Ponte]

     G                      Gm
Não sei se esse mundo está são
         D9           D9/C#     Bm7  Bm7/A
Mas pro mundo que eu vim já não era
     G                 A7
Meu mundo não teria razão
                 D7M
Se não fosse a Zoé

( D6  D  D11+  A )
( D7M  D6  D  D11+  A )

#10t1#    D7M                    D6
#10t2#E|-9------------9---------------------------------|
B|------------------------12-----------12---------|
G|--------11---------11----------11----------11---|
D|-12--12----12---12------12--12----12----12------|
A|------------------------------------------------|
E|------------------------------------------------|#/10t2##/10t1#

#11t1#    D                       D11+
#11t2#E|------------------------------------------------|
B|-10-----------10---------9------------9---------|
G|--------11----------11----------11---------11---|
D|-12--12----12----12------12--12----12---12------|
A|------------------------------------------------|
E|------------------------------------------------|#/11t2##/11t1#

#12t1#    A
#12t2#E|------------0-5--------------------0-5----------|
B|-----5--5h7-----7-5---------5--5h7-----7-5------|
G|---6----------------6-----6----------------6----|
D|-7----------------------7-----------------------|
A|------------------------------------------------|
E|------------------------------------------------|#/12t2##/12t1#

#13t1#    D7M                    D6
#13t2#E|-9------------9---------------------------------|
B|------------------------12-----------12---------|
G|--------11---------11----------11----------11---|
D|-12--12----12---12------12--12----12----12------|
A|------------------------------------------------|
E|------------------------------------------------|#/13t2##/13t1#

#14t1#    D                       D11+
#14t2#E|------------------------------------------------|
B|-10-----------10---------9------------9---------|
G|--------11----------11----------11---------11---|
D|-12--12----12----12------12--12----12---12------|
A|------------------------------------------------|
E|------------------------------------------------|#/14t2##/14t1#

#15t1#    A
#15t2#E|------------0-5--------------------0-5----------|
B|-----5--5h7-----7-5---------5--5h7-----7-5------|
G|---6----------------6-----6----------------6----|
D|-7----------------------7-----------------------|
A|------------------------------------------------|
E|------------------------------------------------|#/15t2##/15t1#

[Refrão]

     Em       Em7M    Em7
Não sei se o mundo é bão
    A            D9  D9/C#
Mas ele está melhor
             Bm7     Bm7/A
Desde que você chegou
         G  ( G  D/F#  Em )
E explicou
             C   D9(11)
O mundo pra mim

[Final]

     G                      Gm
Não sei se esse mundo está são
         D9           D9/C#     Bm7  Bm7/A
Mas pro mundo que eu vim já não era
     G                 A7
Meu mundo não teria razão
                 D7M  Gm/B  D9
Se não fosse a Zoé
Composição: Colaboração e revisão: Thiago AlmeidaAntonio SarmentoThéo SantosJúlio Dinize mais 6