busca

Livre Como Um Deus

Nando Reis

Tom: C
(intro)  Am  G  F  E

(solo)
E|-----------------------------------|
A|-----------------------------------|
D|-----------------------------------|
G|-2---------------------------------|
B|--0-1------------------1-3-1-1/3-0~|
E|-----1/3-0~-------------0----------|

E|---------------------------------------------|
A|---------------------------------------------|
D|---------------------------------------------|
G|-14------------------------------------------|
B|---12-13------------------13--15-13-13/15-12~|
E|--------13/15-12~-----------12---------------|

Am
Não fique triste assim
           G
Não vale a pena
Am
Erros e acertos
              G
São filhos do mesmo pai
F
E a mãe que fez a dúvida
           Em
Deu vida a certeza
F
O tempo há de mostrar
      Em
O mundo se transformar

Am
Mais triste é quem diz
             G
Que para um problema
Am
Só existe a solução
        G
Da matemática
F
O que me faz feliz
     Em
São coisas pequenas
F
Um lindo arco-íris
      Em
Riscando o fim de tarde

Am
E eu olho pra você
     G
E vejo toda a graça
F
Seus olhos brilham pretos
       Em
Seus lábios sem palavras
Am
Seus gestos com timidez
      G
Seus dedos bem pintados
F
Seu rosto sem segredos
   Em
Sorrindo leite em lágrimas
Am         G
Guarde esse amor
F          Em
Ele é todo seu
Am          G
Lindo como a flor
F            Em
Livre como um Deus

Clipes