Am
123
X02210
Bb5(9)
34
X13311
C
123
X32010
Dm
123
XX0231
F
234
133211
G
123
320003
Gm
34
355333
Gm7
1234
3X333X
Tom: G
[Intro] F  Am  Dm
        F  Am  Dm

#1t1##1t2#E|---------------------------------------------------|
B|---------------------------------------------------|
G|-------10-12b14-12b14~-------10-10------10---------|
D|-10h12-----------------10h12-------10h12-----------|
A|---------------------------------------------------|
E|---------------------------------------------------|#/1t2##/1t1#

#2t1##2t2#E|-------------------8-------------------------------|
B|-13b15r13~-10p8h10---10----------------------------|
G|-----------------------------10--------------------|
D|------------------------10h12----------------------|
A|---------------------------------------------------|
E|---------------------------------------------------|#/2t2##/2t1#

[Primeira Parte]

F              Am       Dm
  E agora, o que vou fazer?
            Gm                 
Se os seus lábios ainda 
          Gm7             C
Estão molhando os lábios meus?
      Gm             Gm7                 C
E as lágrimas não secaram com o sol que fez?

F               Am            Dm
  E agora como posso te esquecer?
           Gm            Gm7         C
Se o teu cheiro ainda está no travesseiro?
           Gm            Gm7         C
E o seu cabelo está enrolado no meu peito?

[Refrão]

Bb5(9)                        Am
       Espero que o tempo passe
                        Dm
Espero que a semana acabe
                            C
Pra que eu possa te ver de novo
Bb5(9)                      Am
       Espero que o tempo voe
                    Dm
Para que você retorne
                         G
Pra que eu possa te abraçar
         Bb5(9)
E te beijar
      F  Am  Dm
De novo

( F  Am  Dm )

#3t1##3t2#E|---------------------------------------------------|
B|----------------------------------------10---------|
G|-------10-12b14-12b14~-------10-10-10h12--12-------|
D|-10h12-----------------10h12-----------------------|
A|---------------------------------------------------|
E|---------------------------------------------------|#/3t2##/3t1#

#4t1##4t2#E|-----------10-13b15r13~----------------------------|
B|-13b15r13~-----------------------------------------|
G|---------------------------------------------------|
D|---------------------------------------------------|
A|---------------------------------------------------|
E|---------------------------------------------------|#/4t2##/4t1#

[Segunda Parte]

F                   Am           Dm
  E agora, como eu passo sem te ver?
          Gm
Se o seu nome está gravado no
      Gm7          C
Meu braço como um selo?
        Gm               Gm7
Nossos nomes que tem o N
        C
Como um elo

F               Am          Dm
  E agora como posso te perder?
          Gm           Gm7
Se o teu corpo ainda guarda o
        C
Meu prazer?
         Gm            Gm7
E o meu corpo está moldado
       C
Com o teu?

[Refrão]

Bb5(9)                        Am
       Espero que o tempo passe
                        Dm
Espero que a semana acabe
                            C
Pra que eu possa te ver de novo
Bb5(9)                      Am
       Espero que o tempo voe
                    Dm
Para que você retorne
                         G
Pra que eu possa te abraçar

Bb5(9)                        Am
       Espero que o tempo passe
                        Dm
Espero que a semana acabe
                            C
Pra que eu possa te ver de novo
Bb5(9)                      Am
       Espero que o tempo voe
                    Dm
Para que você retorne
                         G
Pra que eu possa te abraçar

         Bb5(9)
E te beijar
      F  Am  Dm
De novo

[Solo Final] F  Am  Dm
             F  Am  Dm
             F  Am  Dm

#5t1##5t2#E|---------------------------------------------------|
B|------------------------------------------13b15r13~|
G|-------10-12b14-12b14~-------10-10------10---------|
D|-10h12-----------------10h12-------10h12-----------|
A|---------------------------------------------------|
E|---------------------------------------------------|#/5t2##/5t1#

#6t1##6t2#E|-------------------8--------10p8-------------------|
B|-13b15r13~-10p8-10---10--10-----10-13b15~-15r13p10-|
G|---------------------------------------------------|
D|---------------------------------------------------|
A|---------------------------------------------------|
E|---------------------------------------------------|#/6t2##/6t1#

#7t1##7t2#E|----------------------10--15b17--------------------|
B|---------------------------------------------------|
G|-12-12/14-------10-10------------------------------|
D|----------10h12------------------------------------|
A|---------------------------------------------------|
E|---------------------------------------------------|#/7t2##/7t1#
Composição: Nando ReisColaboração e revisão: Thiago AlmeidaRobson VianaEmanuelle MagalhãesREGINALDO FILHOe mais 5
Videoaula N (aula de violão completa)