Por Onde Andei

Nando Reis

Bb5(9)
34
X13311
C
123
X32010
C4
134
X3301X
Dm
123
XX0231
F
234
133211
F/C
1234
X3321X
G
1234
320033
Tom: G
[Intro]

#1t1#   C                         G
#1t2#E|------------------------------------------|
B|------------------------------------------|
G|------0-----------------------------------|
D|--0h2---2------2------------------0-------|
A|3----------3-3---3-3-3--2-----0h2---2-----|
E|---------------------------3--------------|#/1t2##/1t1#

#2t1#   G           Dm                    F
#2t2#E|------------------------------------------|
B|------------------------------------------|
G|-------------------0--------0-------------|
D|----0---------0--3---3--0-0---0--------3--|
A|------2-0-0-3--------------------0-3-3----|
E|3-3---------------------------------------|#/2t2##/2t1#

#3t1##3t2#E|------------------------------------------|
B|------------------------------------------|
G|----0-------------------------------------|
D|--------------3---2-----------------------|
A|3-3---3-3-3-3---3-------------------------|
E|------------------------------------------|#/3t2##/3t1#

#4t1#   C                         G
#4t2#E|------------------------------------------|
B|------------------------------------------|
G|------0-----------------------------------|
D|--0h2---2------2------------------0-------|
A|3----------3-3---3-3-3--2-----0h2---2-----|
E|---------------------------3--------------|#/4t2##/4t1#

#5t1#  G           Dm                     F/C C4
#5t2#E|------------------------------------------|
B|-----------------------------------1---1--|
G|-------------------0--------0------2---0--|
D|----0---------0--3---3--0-0---0----3---3--|
A|------2-0-0-3--------------------0-3---3--|
E|3-3---------------------------------------|#/5t2##/5t1#

            C
Desculpe estou um pouco atrasado
       G
Mas espero que ainda de tempo
      Dm                          F
De dizer que andei errado e eu entendo
           C
As suas queixas tão justificáveis
            G
E a falta que eu fiz nessa semana
 Dm                            F
Coisas que pareceriam óbvias até pra uma criança

[Refrão]

    C
Por onde andei
            G
Enquanto você me procurava
   Bb5(9)                   F
Será que eu sei que você é mesmo tudo
                  C    G Dm F
Aquilo que me faltava?

         C
Amor eu sinto a sua falta
             G
E a falta é morte da esperança
        Dm
Como o dia em que roubaram o seu carro
    F
Deixou uma lembrança
              C
Que a vida é mesmo coisa muito frágil
       G
Uma bobagem uma irrelevância
  Dm                      F
Diante da eternidade do amor, de quem se ama

[Refrão]

    C
Por onde andei
            G
Enquanto você me procurava
      Bb5(9)                  F
E o que eu te dei, foi muito pouco ou quase nada

    C                     G
E que eu deixei, algumas roupas penduradas
   Bb5(9)                   F
Será que eu sei que você é mesmo tudo
                  C    G Dm F
Aquilo que me faltava?
Composição: Nando ReisColaboração e revisão: Thiago AlmeidaFelipe ReisAlex SaltariPaulo Lenze mais 13
Videoaula Por Onde Andei (aula de violão completa)