The Rising Fighting Spirit

Naruto

A
123
X02220
Bm
234
X24432
C
123
X32010
D
123
XX0232
E
123
022100
Em
12
022000
G
123
320003
Tom: A
[Riff 1]


E|--------------------------|----
B|--------------------------|----
G|--------------------------|----
D|--------------------------|----
A|-------------------2-0---|-----
E|----0-0-0-3-2-0-----------|----

E|------------------------------|----------------------| 
B|------------------------------|----------------------| 
G|------------------------------|-----7----------------| 
D|------------------------------|-----7---------7------| 
A|-----------------------------|-----5---------7------|  
E|3-5-3-2------0-0-0-3-2-0------|---------------5------| 



E|--------------------------|----
B|--------------------------|----
G|--------------------------|----
D|--------------------------|----
A|---------------------2-0-|-----
E|----0-0-0-3-2-0-----------|----

E|-------------------|-----------------------|   
B|-------------------|-----------------------|   
G|-------------------|-----5--5-------4--4-----| 
D|-------------------|-----5--5-------4--4-----| 
A|------------------|------3--3-------2--2-----| 
E|3-5-3-2------------|-----------------------|   



E|---------------------------|----
B|---------------------------|----
G|---------------------------|----
D|---------------------------|----
A|--------------------2-0---|-----
E|----0-0-0-3-2-0------------|----

E|------------------------------|---
B|------------------------------|---
G|------------------------------|---
D|------------------------------|---
A|-----------------------------|----
E|3-5-3-2------0-0-0-3-2-0------|---

E|-----------------| 
B|-----------------| 
G|--7--------------| 
D|--7---------7----| 
A|--5---------7----| 
E|------------5----| 



E|--------------------------|----
B|--------------------------|----
G|--------------------------|----
D|--------------------------|----
A|---------------------2-0-|-----
E|----0-0-0-3-2-0-----------|----

E|-------------------|----------------------| 
B|-------------------|----------------------| 
G|-------------------|-----5---------4------| 
D|-------------------|-----5---------4------| 
A|------------------|------3---------2------| 
E|3-5-3-2------------|----------------------| 


[Riff 2]   E                        

       A


E|--------------------------------
B|--------------------------------
G|---9--9---x--x-----9--9---x--x--
D|---9--9---x--x-----9--9---x--x--
A|---7--7---x--x-----7--7---x--x--
E|--------------------------------

E||--------------------------------
B||--------------------------------
G||----7--7-----x--x-----7--7---x--
D||----7--7-----x--x-----7--7---x--
A||----5--5-----x--x-----5--5---x--
E||--------------------------------

E|--| 
B|--| 
G|x-| 
D|x-| 
A|x-| 
E|--| 

E A E|-------------------------------- B|-------------------------------- G|---9--9---x--x-----9--9---x--x-- D|---9--9---x--x-----9--9---x--x-- A|---7--7---x--x-----7--7---x--x-- E|-------------------------------- E||-------------------------------- B||-------------------------------- G||----7--7-----x--x-----7--7---x-- D||----7--7-----x--x-----7--7---x-- A||----5--5-----x--x-----5--5---x-- E||-------------------------------- E|---| B|---| G|x--| D|x--| A|x--| E|---| C D E|-------------------------------- B|-------------------------------- G|---5--5---x--x-----5--5---x--x-- D|---5--5---x--x-----5--5---x--x-- A|---3--3---x--x-----3--3---x--x-- E|-------------------------------- E||-------------------------------- B||-------------------------------- G||----7--7-----x--x-----7--7---x-- D||----7--7-----x--x-----7--7---x-- A||----5--5-----x--x-----5--5---x-- E||-------------------------------- E|----| B|----| G|x---| D|x---| A|x---| E|----| E|--------------------------|---- B|--------------------------|---- G|--------------------------|---- D|--------------------------|---- A|---------------------2-p0-|---- E|----0-0-0-3-2-0-----------|---- E|-------------------|-----------------------| B|-------------------|-----------------------| G|-------------------|-----5---------4-------| D|-------------------|-----5---------4-------| A|-------------------|-----3---------2-------| E|3-5-3-2------------|-----------------------| [Riff 3] C E|---------------------| B|---------------------| G|---5---x---x---x--x--| (4x) D|---5---x---x---x--x--| A|---3---x---x---x--x--| E|---------------------| Bm E|--------------------| B|--------------------| G|---4---x---x---x--x-| (2x) D|---4---x---x---x--x-| A|---2---x---x---x--x-| E|--------------------| Em A Bm C A E|---------------|---------------- B|---------------|---------------- G|---------------|---------------- D|-2---4---5--6--|--7--x--x--x--x- A|-2---4---5--6--|--7--x--x--x--x- E|-0---2---3--4--|--5--x--x--x--x- E|-|--------------------|----------- B|-|--------------------|----------- G|-|---4---x---x---x--x-|-5---x---x- D|-|---4---x---x---x--x-|-5---x---x- A|-|---2---x---x---x--x-|-3---x---x- E|-|--------------------|----------- E|-------|------------------| B|-------|------------------| G|--x-x--|---7--7------7--7-| D|--x-x--|---7--7------7--7-| A|--x--x-|---5--5------5--5-| E|-------|------------------| [Riff 4] C G D Bm C D Em E|-------------------|------------ B|-------------------|------------ G|-------------------|---5-------- D|---2----4----5-----|---5----5--- A|---2----4----5-----|---3----5--- E|---0----2----3-----|--------3--- E|------------|-------------------|- B|------------|-------------------|- G|---7-----4--|-------------------|- D|---7-----4--|---2----4----5-----|- A|---5-----2--|---2----4----5-----|- E|------------|---0----2----3-----|- E|-----------------| B|-----------------| G|--5----7----9----| D|--5----7----9----| A|--3----5----7----| E|-----------------|
Composição: Colaboração e revisão: XrayNatanael AntonioKleber Lucasvictor santose mais 2
Videoaula THE RAISING FIGHTING SPIRIT (aula de guitarra)

Utilizamos cookies para personalizar sua experiência. Ao acessar o site, você concorda com a nossa Política de Privacidade.