The Rising Fighting Spirit

Naruto

Principal
A5
12
X022XX
B5
134
X244XX
C5
134
X355XX
D/F#
1234
2X0232
D5
134
X577XX
E5
12
022XXX
G5
134
355XXX
Tom: Em
[Riff Inicial]


Parte 1 de 4

E|--------------------------------
B|--------------------------------
G|--------------------------------
D|--------------------------------
A|-----------------0h2p0---0------
E|-12\-0-0-0-3-2-0-------3---3-2--


Parte 2 de 4


                 D5    A5
E|--------------------------------
B|--------------------------------
G|---------------7-----2----------
D|---------------7-----2----------
A|---------------5-----0----------
E|-0-0-0-3-2-0--------------------



Parte 3 de 4

E|--------------------------------
B|--------------------------------
G|--------------------------------
D|--------------------------------
A|-------------0h2p0---0----------
E|-0-0-0-3-2-0-------3---3-2------



Parte 4 de 4
      C5       B5
E|--------------------------------
B|--------------------------------
G|----5--5-----4--4---------------
D|----5--5-----4--4---------------
A|----3--3-----2--2---------------
E|-0--------0---------------------


Tema A


Parte 1 de 4
   E5             
E|--------------------------------
B|--------------------------------
G|-9---9-----------9---9----------
D|-9---9-----------9---9----------
A|-7---7---7-7-7---7---7---7-7-7--
E|--------------------------------



   D5
E|--------------------------------
B|--------------------------------
G|-7---7-----------7---7----------
D|-7---7-----------7---7----------
A|-5---5---5-5-5---5---5---5-5-5--
E|--------------------------------



Parte 2 de 4
     E5
E|--------------------------------
B|--------------------------------
G|-9---9-----------9---9----------
D|-9---9-----------9---9----------
A|-7---7---7-7-7---7---7---7-7-7--
E|--------------------------------



   D5
E|--------------------------------
B|--------------------------------
G|-7---7-----------7---7----------
D|-7---7-----------7---7----------
A|-5---5---5-5-5---5---5---5-5-5--
E|--------------------------------



Parte 3 de 4
   C5 
E|--------------------------------
B|--------------------------------
G|-5---5-----------5---5----------
D|-5---5-----------5---5----------
A|-3---3---3-3-3---3---3---3-3-3--
E|--------------------------------



   D5
E|--------------------------------
B|--------------------------------
G|-7---7-----------7---7----------
D|-7---7-----------7---7---7\-----
A|-5---5---5-5-5---5---5---5\-----
E|--------------------------------



Parte 4 de 4

E|--------------------------------
B|--------------------------------
G|--------------------------------
D|--------------------------------
A|-------------0h2p0---0----------
E|-0-0-0-3-2-0-------3---3-2------



      C5       B5 
E|--------------------------------
B|--------------------------------
G|----5--5-----4--4---------------
D|----5--5-----4--4---------------
A|----3--3-----2--2---------------
E|-0--------0---------------------




Parte 4 de 4 - Variação

E|--------------------------------
B|--------------------------------
G|--------------------------------
D|--------------------------------
A|-------------0h2p0---0----------
E|-0-0-0-3-2-0-------3---3-2------



      C5       D5
E|--------------------------------
B|--------------------------------
G|----5--5-----7--7---------------
D|----5--5-----7--7---------------
A|----3--3-----5--5---------------
E|-0--------0---------------------


Solo Tema A Parte 1 de 4 E|-------------------------------- B|-------------------------------- G|---9~--9--11--12--11\--7~------- D|-9------------------------------ A|-------------------------------- E|-------------------------------- Parte 2 de 4 E|-------------------------------- B|-------------------------------- G|-9~--9--11--12--12/14~---------- D|-------------------------------- A|-------------------------------- E|-------------------------------- Parte 3 de 4 E|------------------------------ B|-13~--13-15-13-12~\10--------- G|-----------------------12-11-- D|------------------------------ A|------------------------------ E|------------------------------ E|-----------------------| B|10--12~----------------| G|-----------------------| D|-----------------------| A|-----------------------| E|-----------------------| Parte 4 de 4 E|----------------------------- B|-13~--13-15-17--15~p13------- G|-----------------------14-12- D|----------------------------- A|----------------------------- E|----------------------------- E|------------------------| B|15\--12~----------------| G|------------------------| D|------------------------| A|------------------------| E|------------------------| [Solo de Koto] Parte 1 de 4 C5 E|-------------------------------- B|-------------------------------- G|-------------------------------- D|-------------5------------------ A|-3-3-3-3-3-3-3---3-3-3-3-------- E|-------------------------------- C5 E|-------------------------------- B|-------------------------------- G|-------------------------------- D|-------------5------------------ A|-3-3-3-3-3-3-3---3-3-3-3-------- E|-------------------------------- Parte 2 de 4 B5 E|-------------------------------- B|-------------------------------- G|-------------------------------- D|-4-----------4------------------ A|-2---2-2-2-2-2---2-2-2-2-------- E|-------------------------------- E|-------------------------------- B|-------------------------------- G|-------------------------------- D|-------------------------------- A|-------------------------------- E|-0-----2-----3-----4------------ Parte 3 de 4 A5 E|-------------------------------- B|-------------------------------- G|-------------------------------- D|-2-----------2------------------ A|-0---0-0-0-0-0---0-0-0-0-------- E|-------------------------------- B5 E|-------------------------------- B|-------------------------------- G|-------------------------------- D|-4-----------4------------------ A|-2---2-2-2-2-2---2-2-2-2-------- E|-------------------------------- Parte 4 de 4 C5 E|-------------------------------- B|-------------------------------- G|-------------------------------- D|-5-----------5------------------ A|-3---3-3-3-3-3---3-3-3-3-------- E|-------------------------------- D5 E|-------------------------------- B|-------------------------------- G|-7--7--7--7--------------------- D|-7--7--7--7--------------------- A|-5--5--5--5--------------------- E|-------------------------------- [Solo] Parte 1 de 4 E|-------------------------------- B|-------------------------------- G|-------------------------------- D|----9-7-9~-9~----9-7-9~-9~----9- A|--7------------7------------7--- E|-------------------------------- E|---------------------| B|---------------------| G|---------------------| D|7-9~-9-9~\-7-7~------| A|---------------------| E|---------------------| Parte 2 de 4 E|-------------------------------- B|-------------------------------- G|---------------------------7~--- D|---5~----5~----5-5---5-7-9----7- A|-7-----7-----7-----7------------ E|-------------------------------- E|---------------------| B|---------------------| G|---7-7/9~------------| D|-9-------------------| A|---------------------| E|---------------------| Parte 3 de 4 E|-0------0------0------0-------0- B|-----------------8/10---10/12--- G|---7/9~----7/9------------------ D|-------------------------------- A|-------------------------------- E|-------------------------------- E|---------------------| B|-8/10-10/12-12-12-12-| G|---------------------| D|---------------------| A|---------------------| E|---------------------| Parte 4 de 4 E|------------------------------- B|-10--10--15-15-15-15~-12-15-12- G|------------------------------- D|------------------------------- A|------------------------------- E|------------------------------- E|----------------------| B|15-12-15-12-15-14b15~-| G|----------------------| D|----------------------| A|----------------------| E|----------------------| Segundo Tema Parte 1 de 4 E5 D/F# G5 E|-------------------------------- B|-------------------------------- G|-------------------------------- D|-2-----0-----5------------------ A|-2-----0-----5------------------ E|-0-----2-----3------------------ Parte 2 de 4 C5 G5 D5 B5 E|-------------------------------- B|-------------------------------- G|-5-----------7-----5------------ D|-5-----5-----7-----5------------ A|-3-----5-----5-----2------------ E|-------3------------------------ Parte 3 de 4 E5 D/F# G5 E|-------------------------------- B|-------------------------------- G|-------------------------------- D|-2-----0-----5------------------ A|-2-----0-----5------------------ E|-0-----2-----3------------------ Parte 4 de 4 C5 D5 E5 E|-------------------------------- B|-------------------------------- G|-5-----7-----9--9--9--9--------- D|-5-----7-----9--9--9--9--------- A|-3-----5-----7--7--7--7--------- E|-------------------------------- [Solo] Parte 1 de 4 E|------------------------------- B|-8~--7-8-8/10~--12/15~-13~--12- G|------------------------------- D|------------------------------- A|------------------------------- E|------------------------------- E|----------------------| B|10-12~----------------| G|----------------------| D|----------------------| A|----------------------| E|----------------------| Parte 2 de 4 E|-12~-10---------------------- B|--------13-12~-----10~----10- G|---------------12~-----12---- D|----------------------------- A|----------------------------- E|----------------------------- E|------------------------| B|12~---------------------| G|------------------------| D|------------------------| A|------------------------| E|------------------------| Parte 3 de 4 E|------------------------------- B|-8~--7-8-8/10~--12/15~-13~--12- G|------------------------------- D|------------------------------- A|------------------------------- E|------------------------------- E|----------------------| B|10-12~----------------| G|----------------------| D|----------------------| A|----------------------| E|----------------------| Parte 4 de 4 E|-12-10-------------------------- B|-------13-12-10----------------- G|----------------12\-9~---------- D|-------------------------------- A|-------------------------------- E|-------------------------------- [Parte Final] Parte 1 de 5 E|-------------------------------- B|-------------------------------- G|-------------------------------- D|-------------------------------- A|-----------------0h2p0---0------ E|-12\-0-0-0-3-2-0-------3---3-2-- Parte 2 de 5 D5 A5 E|-------------------------------- B|-------------------------------- G|---------------7-----2---------- D|---------------7-----2---------- A|---------------5-----0---------- E|-0-0-0-3-2-0-------------------- Parte 3 de 5 E|-------------------------------- B|-------------------------------- G|-------------------------------- D|-------------------------------- A|-------------0h2p0---0---------- E|-0-0-0-3-2-0-------3---3-2------ Parte 4 de 5 C5 B5 E|-------------------------------- B|-------------------------------- G|----5--5-----4--4--------------- D|----5--5-----4--4--------------- A|----3--3-----2--2--------------- E|-0--------0--------------------- Parte 5 de 5 E5 E|-------------------------------- B|-------------------------------- G|-9--9--9--9--9--9--9\----------- D|-9--9--9--9--9--9--9\----------- A|-7--7--7--7--7--7--7\----------- E|--------------------------------
Composição: Colaboração e revisão: Gustavo CunhaThiago Almeida
Videoaula THE RAISING FIGHTING SPIRIT (aula de guitarra)

Utilizamos cookies para personalizar sua experiência. Ao acessar o site, você concorda com a nossa Política de Privacidade.