Message

Nas

Tom: G

E|---6----6---5----5----3----3----
B|--------------------------------
G|-----7----7----7----7----5----5-
D|--------------------------------
A|--------------------------------
E|--------------------------------

E|3------5----| 
B|------------| 
G|----5-----5-| 
D|------------| 
A|------------| 
E|------------| 



E|---6----6---5----5----3----3----
B|--------------------------------
G|-----7----7----7----7----5----5-
D|--------------------------------
A|--------------------------------
E|--------------------------------

E|3------5----| 
B|------------| 
G|----5-----5-| 
D|------------| 
A|------------| 
E|------------| 


and continue through whole song


Theres the tab for you, its about 99% correct, if there any problem gimme some feedback at DragonF* ty Phoo
Composição: S. BarnesColaboração e revisão:

Utilizamos cookies para personalizar sua experiência. Ao acessar o site, você concorda com a nossa Política de Privacidade.